busca

Teste Love

Cleber e Cauan

Tom: G
          G                        D
E|---------------------------------------------------|
B|---------------------------------------------------|
G|---------------------------------------------------|
D|------4h5--5-5-4-4-2-2-----------------------------|
A|-4/5-5------------------5-5---4h5-5-5-4h5-5-5-4h5--|
E|---------------------------------------------------|

             G
Será que tá só

Será que tá bem
            D
Será que depois de mim já arrumou alguém
         Em
Talvez seja um tempo pra pensar
                  C
Vou matar essa dúvida antes dela me matar
            G
Se tiver ciúme tem amor, se tiver saudade tem paixão
                D
Vou fazer um malzinho pro nosso bem
                            Em
Um teste love não mata ninguém
         C                           D
Só pra saber o tanto de amor que ainda tem
        G                                  D
Vou passar na sua frente de mãos dadas e cê vai sentir o drama
             Em
Se der piti, ainda me ama
               C
Se der piti, é porque me ama

         G                        D                              Em                               C
E|---------------------------------------------------------------------------------------------------------------------------|
B|------------------------------------------------------------7h8-8-8-7h8-8-8-7h8---------------3h5-5-5-3h5-5-5-5/8----------|
G|------------------------------------------------------------7h9-9-9-7h9-9-9-7h9---------------4h5-5-5-4h5-5-5--------------|
D|------4h5--5-5-4-4-2-2-----------------------------------------------------------------------------------------------------|
A|-4/5-5------------------5-5---4h5-5-5-4h5-5-5-4h5-5-5-4h5------------------------5-5-4-5h7-5-------------------------------|
E|---------------------------------------------------------------------------------------------------------------------------|

             G
Será que tá só

Será que tá bem
            D
Será que depois de mim já arrumou alguém
         Em
Talvez seja um tempo pra pensar
                  C
Vou matar essa dúvida antes dela me matar
            G
Se tiver ciúme tem amor, se tiver saudade tem paixão
                D
Vou fazer um malzinho pro nosso bem
                            Em
Um teste love não mata ninguém
         C                           D
Só pra saber o tanto de amor que ainda tem
        G                                  D
Vou passar na sua frente de mãos dadas e cê vai sentir o drama
             Em
Se der piti, ainda me ama
               C
Se der piti, é porque me ama

          G                        D
E|---------------------------------------------------|
B|---------------------------------------------------|
G|---------------------------------------------------|
D|------4h5--5-5-4-4-2-2-----------------------------|
A|-4/5-5------------------5-5---4h5-5-5-4h5-5-5-4h5--|
E|---------------------------------------------------|

             Em
Se der piti, ainda me ama
               C
Se der piti, é porque me ama
                           G
Um teste love não mata ninguém

Clipes

Cifra Club Pro

Aproveite o Cifra Club com benefícios exclusivos e sem anúncios
Cifra Club Pro
Aproveite o Cifra Club com benefícios exclusivos e sem anúncios