busca

The Scientist

Coldplay

Tom: G
[Intro] C#m7  A9  E  E9

[Intro e Primeira Parte]

Parte 1 de 2
   C#m7              A9
E|------------------------------------------|
B|-0---0---0---0----0---0---0---0-----------|
G|-1---1---1---1----2---2---2---2-----------|
D|-2---2---2---2----2---2---2---2-----------|
A|-4-4-4-4-4-4-4-4--0-0-0-0-0-0-0-0---------|
E|------------------------------------------|

Parte 2 de 2
   E                E9
E|------------------------------------------|
B|-0---0---0---0----0---0---0---0-----------|
G|-1---1---1---1----1---1---1---1-----------|
D|-2---2---2---2----4---4---4---4-----------|
A|------------------------------------------|
E|-0-0-0-0-0-0-0-0--0-0-0-0-0-0-0-0---------|

[Primeira Parte]

Come up to meet You. Tell you I'm sorry

E|---------------------|---------------------|
B|---------------------|---------------------|
G|---------------------|---------------------|
D|---------8/10--------|----------8/10-------|
A|--8-10p8------12~~~--|--8-10p8------12~~~--|
E|---------------------|---------------------|

You don't know how lovely you are

E|-----------------------------------|
B|-----------------------------------|
G|-----------------------------------|
D|-----------------------------------|
A|--8-10p8--10/12---12---12-12-10\8--|
E|-----------------------------------|

I had to find you. Tell you I need you

E|---------------------|---------------------|
B|---------------------|---------------------|
G|---------------------|---------------------|
D|---------8/10--------|----------8/10-------|
A|--8-10p8------12~~~--|--8-10p8------12~~~--|
E|---------------------|---------------------|

Tell you I'll set you apart

E|-----------------------------------|
B|-----------------------------------|
G|-----------------------------------|
D|-----------------------------------|
A|--8-10p8--10/12---12---12-12-10\8--|
E|-----------------------------------|

Tell me your secrets. And ask me your questions

E|---------------------|---------------------|
B|---------------------|---------------------|
G|---------------------|---------------------|
D|---------8/10--------|----------8/10-------|
A|--8-10p8------12~~~--|--8-10p8------12~~~--|
E|---------------------|---------------------|

Oh, lets go back to the start

E|-----------------------------------|
B|-----------------------------------|
G|-----------------------------------|
D|-----------------------------------|
A|--8-10p8--10/12---12---12-12-10\8--|
E|-----------------------------------|

Running in circles. Coming up tails

E|---------------------|---------------------|
B|---------------------|---------------------|
G|---------------------|---------------------|
D|---------8/10--------|----------8/10-------|
A|--8-10p8------12~~~--|--8-10p8------12~~~--|
E|---------------------|---------------------|

Heads on a science apart

E|-----------------------------------|
B|-----------------------------------|
G|-----------------------------------|
D|-----------------------------------|
A|--8-10p8--10/12---12---12-12-10\8--|
E|-----------------------------------|

[Refrão]

Nobody said it was easy

E|--------------------------------------------|
B|--------------------------------------------|
G|--9/10----------9/10---------9/10-----------|
D|--------12-10--------12-10--------12p10~~---|
A|--------------------------------------------|
E|--------------------------------------------|

It's such a shame for us to part

E|----------------------------------------|
B|----------------------------------------|
G|----------------------------------------|
D|-----10-----10/12-----------------------|
A|--12----12---------12--12-12-12-10\8~~--|
E|----------------------------------------|

Nobody said it was easy

E|--------------------------------------------|
B|--------------------------------------------|
G|--9/10----------9/10---------9/10-----------|
D|--------12-10--------12-10--------12p10~~---|
A|--------------------------------------------|
E|--------------------------------------------|

No one ever said it would be this hard

E|--------------------------------------------|
B|--------------------------------------------|
G|--------------------------------------------|
D|-----10-10----10/12-------------------------|
A|--12-------12---------12--12-12-12-10\8-----|
E|----------------------------------------12--|

Oh take me back to the start

E|--------------------------|
B|--------------------------|
G|--8-8-8-8-8-8-8p7---------|
D|------------------8~~~~---|
A|--------------------------|
E|--------------------------|

[Segunda Parte] E  A9  E  E9

[Segunda Parte]

Parte 1 de 5
   A9
E|------------------------------------------|
B|-0---0---0---0----0---0---0---0-----------|
G|-2---2---2---2----2---2---2---2-----------|
D|-2---2---2---2----2---2---2---2-----------|
A|-0-0-0-0-0-0-0-0--0-0-0-0-0-0-0-0---------|
E|------------------------------------------|

Parte 2 de 5
   E                E9
E|------------------------------------------|
B|-0---0---0---0----0---0---0---0-----------|
G|-1---1---1---1----1---1---1---1-----------|
D|-2---2---2---2----4---4---4---4-----------|
A|------------------------------------------|
E|-0-0-0-0-0-0-0-0--0-0-0-0-0-0-0-0---------|

Parte 3 de 5
   A9
E|------------------------------------------|
B|-0---0---0---0----0---0---0---0-----------|
G|-2---2---2---2----2---2---2---2-----------|
D|-2---2---2---2----2---2---2---2-----------|
A|-0-0-0-0-0-0-0-0--0-0-0-0-0-0-0-0---------|
E|------------------------------------------|

Parte 4 de 5
   E               E7M(9)   E6
E|------------------------------------------|
B|-0---0---0---0----7---7---5---5-----------|
G|-1---1---1---1----8---8---6---6-----------|
D|-2---2---2---2----6---6---6---6-----------|
A|------------------------------------------|
E|-0-0-0-0-0-0-0-0--0-0-0-0-0-0-0-0---------|

Parte 5 de 5
   B
E|------------------2-----------------------|
B|-4---4---4---4-5--------------------------|
G|-4---4---4---4-4--4-----------------------|
D|-4---4---4---4-4--4-----------------------|
A|-2-2-2-2-2-2-2-2--2-----------------------|
E|------------------------------------------|

I was just guessing. At numbers and figures

E|---------------------|---------------------|
B|---------------------|---------------------|
G|---------------------|---------------------|
D|---------8/10--------|----------8/10-------|
A|--8-10p8------12~~~--|--8-10p8------12~~~--|
E|---------------------|---------------------|

Pulling your puzzles apart

E|-----------------------------------|
B|-----------------------------------|
G|-----------------------------------|
D|-----------------------------------|
A|--8-10p8--10/12---12---12-12-10\8--|
E|-----------------------------------|

Questions of science. Science and progress

E|---------------------|---------------------|
B|---------------------|---------------------|
G|---------------------|---------------------|
D|---------8/10--------|----------8/10-------|
A|--8-10p8------12~~~--|--8-10p8------12~~~--|
E|---------------------|---------------------|

Do not speak as loud as my heart

E|-----------------------------------|
B|-----------------------------------|
G|-----------------------------------|
D|-----------------------------------|
A|--8-10p8--10/12---12---12-12-10\8--|
E|-----------------------------------|

Tell me you love me. Come back and haunt me

E|---------------------|---------------------|
B|---------------------|---------------------|
G|---------------------|---------------------|
D|---------8/10--------|----------8/10-------|
A|--8-10p8------12~~~--|--8-10p8------12~~~--|
E|---------------------|---------------------|

Oh and I rush to the start

E|-----------------------------------|
B|-----------------------------------|
G|-----------------------------------|
D|-----------------------------------|
A|--8-10p8--10/12---12---12-12-10\8--|
E|-----------------------------------|

Running in circles. Chasing  tails

E|---------------------|---------------------|
B|---------------------|---------------------|
G|---------------------|---------------------|
D|---------8/10--------|----------8/10-------|
A|--8-10p8------12~~~--|--8-10p8------12~~~--|
E|---------------------|---------------------|

Coming back as we are

E|-----------------------------------|
B|-----------------------------------|
G|-----------------------------------|
D|-----------------------------------|
A|--8-10p8--10/12---12---12-12-10\8--|
E|-----------------------------------|

Nobody said it was easy

E|--------------------------------------------|
B|--------------------------------------------|
G|--9/10----------9/10---------9/10-----------|
D|--------12-10--------12-10--------12p10~~---|
A|--------------------------------------------|
E|--------------------------------------------|

It's such a shame for us to part

E|----------------------------------------|
B|----------------------------------------|
G|----------------------------------------|
D|-----10-----10/12-----------------------|
A|--12----12---------12--12-12-12-10\8~~--|
E|----------------------------------------|

Nobody said it was easy

E|--------------------------------------------|
B|--------------------------------------------|
G|--9/10----------9/10---------9/10-----------|
D|--------12-10--------12-10--------12p10~~---|
A|--------------------------------------------|
E|--------------------------------------------|

No one ever said it would be só  hard

E|--------------------------------------------|
B|--------------------------------------------|
G|--------------------------------------------|
D|-----10-10----10/12-------------------------|
A|--12-------12---------12--12-12-12-10\8-----|
E|----------------------------------------12--|

I'm going back to the start

E|--------------------------|
B|--------------------------|
G|--8-8-8-8-8-8-8p7---------|
D|------------------8~~~~---|
A|--------------------------|
E|--------------------------|

[Final]

( C#m7  A9  E )

Oh uhhh  uh uh uh uh
E|--------------------------|
B|--------------------------|
G|-----12/14--12-10---------|
D|--10--------------12p10---|
A|--------------------------|
E|--------------------------|

Clipes

Cifra Club Pro

Aproveite o Cifra Club com benefícios exclusivos e sem anúncios
7 dias grátis
Cifra Club Pro
Aproveite o Cifra Club com benefícios exclusivos e sem anúncios
7 dias grátis