C
123
X32010
C9
34
X35533
D
123
XX0232
D/F#
1234
2X0232
Em
12
022000
Em7
123
022030
G
123
320003
Tom: G
[Intro] Em  D  C9
        Em7  D  C9


   Em             D            
E|--2~3--3--5--7--5-----3--2--
B|----------------------------
G|----------------------------
D|----------------------------
A|----------------------------
E|----------------------------
  C9
E|2~3~2-----0-------------| 
B|-------3----------------| 
G|------------------------| 
D|------------------------| 
A|------------------------| 
E|------------------------| 



   Em             D           
E|--2~3--3--5--7--5-----8--7--
B|----------------------------
G|----------------------------
D|----------------------------
A|----------------------------
E|----------------------------
  C9
E|7~8~7--3--5-------------| 
B|------------------------| 
G|------------------------| 
D|------------------------| 
A|------------------------| 
E|------------------------| 


Em7       D/F#       C9
   Estás aqui, agraciada
Em7         D/F#       C9
   Posso sentir teu perfume
Em7 D/F# C9 Estás aqui, mãe do meu Senhor Em7 D/F# C9 Vem ficar perto de mim G D/F# Cheiro de rosas nesse lugar C9 D/F# Maria, aqui está Em C D/F# E o Espirito de Deus descerá G D/F# Cheiro de rosas nesse lugar C9 D/F# A rainha presente está Em D C D/F# Pentecostes acontecerá ( Em D/F# C9 Em D/F# C9 )
Composição: Colaboração e revisão: Gilcimar SouzaThiago RincoLucasAlexandreTRenan Bonassae mais 10

Utilizamos cookies para personalizar sua experiência. Ao acessar o site, você concorda com a nossa Política de Privacidade.