B9
34
X24422
E
123
022100
F#
234
244322
G#m
34
466444
Tom: G
[Intro] B9  G#m  B9  G#m

#1t1##1t2#E|------11--------11--------11------9--------9-------9-------|
B|-----------------------------------------------------------|
G|---8-----8---8-----8---8-------8----8---8----8---8---------|
D|-9---------9---------9-------9--------9--------9-----------|
A|-----------------------------------------------------------|
E|-----------------------------------------------------------|#/1t2##/1t1#

#2t1##2t2#E|------6--------6----------6------6--------6----------------|
B|-----------------------------------------------------------|
G|---4-----4---4-----4---4-------4----4---4----4---4---------|
D|-6---------6---------6-------6--------6--------6-----------|
A|-----------------------------------------------------------|
E|-----------------------------------------------------------|#/2t2##/2t1#

#3t1##3t2#E|------11--------11--------11------9--------9-------9-------|
B|-----------------------------------------------------------|
G|---8-----8---8-----8---8-------8----8---8----8---8---------|
D|-9---------9---------9-------9--------9--------9-----------|
A|-----------------------------------------------------------|
E|-----------------------------------------------------------|#/3t2##/3t1#

#4t1##4t2#E|------6--------6----------6---6----------------------------|
B|------------------------------4----------------------------|
G|---4-----4---4-----4---4------4----------------------------|
D|-6---------6---------6--------6----------------------------|
A|-----------------------------------------------------------|
E|-----------------------------------------------------------|#/4t2##/4t1#

[Primeira Parte]

               G#m                E
Sarça que só queima, que não se apaga
             B9                 F#
Somos Tua Igreja, Viemos Te adorar
             G#m            E
Neste Teu altar somos sacrifício
              B9
Vem nos consumir
        F#
Estamos aqui
E    F#
Aqui

[Refrão]

              B9     
Foi a Tua Presença 
                  F#
Que nos trouxe aqui, Senhor
            E                 G#m
Não desistiremos de Te perseguir
       F#
Até te encontrar
                B9
Diante da Tua Glória
           F#
Não podemos ficar de pé
               E
Mostra quem Tu és
             G#m
Vem nos visitar
            F#
Nos fazer queimar
      B9  G#m
De novo

[Primeira Parte]

               G#m                E
Sarça que só queima, que não se apaga
             B9                 F#
Somos Tua Igreja, Viemos Te adorar
             G#m            E
Neste Teu altar somos sacrifício
              B9
Vem nos consumir
        F#
Estamos aqui
E    F#
Aqui

[Refrão]

              B9     
Foi a Tua Presença 
                  F#
Que nos trouxe aqui, Senhor
            E                 G#m
Não desistiremos de Te perseguir
       F#
Até te encontrar
                B9
Diante da Tua Glória
           F#
Não podemos ficar de pé
               E
Mostra quem Tu és
             G#m
Vem nos visitar
            F#
Nos fazer queimar
      B9  G#m
De novo

( B9  G#m )

B9
  Manda Teu fogo

Manda Teu fogo
G#m
  Queima de novo

Queima de novo
B9
  Manda Teu fogo

Manda Teu fogo
G#m
  Queima de novo

Queima de novo

[Refrão]

              B9     
Foi a Tua Presença 
                  F#
Que nos trouxe aqui, Senhor
            E                 G#m
Não desistiremos de Te perseguir
       F#
Até te encontrar
                B9
Diante da Tua Glória
           F#
Não podemos ficar de pé
               E
Mostra quem Tu és
             G#m
Vem nos visitar
            F#
Nos fazer queimar
      B9  G#m  B9
De novo
Composição: Flávio Vitor JrColaboração e revisão: Lucas KappaunNycolle MaiaLucas MerakiLiedson Silvae mais 12
Videoaula QUEIMA DE NOVO (aula de violão completa)