A
123
X02220
A/C#
1234
X4X255
B
234
X24442
C#m
234
X46654
234
X34242
D
123
XX0232
E
123
022100
Tom: G
[Intro]

#1t1#  E       A   B      C#m       A     B
#1t2#E|-------------------------------------|
B|-5-5h7-5--5-5-4-------5-5h7-5--7p5-5-|
G|-------------------------------------|
D|-------------------------------------|
A|-------------------------------------|
E|-------------------------------------|#/1t2##/1t1#

[Refrão]

          A        B            C#m
Mas olha só o que foi que aconteceu
      A        B            E
Eu mirei em você e acertei Deus 

[Primeira Parte]

E               A                   B
  Como quem descobre um tesouro eu vi
                       C#m
Transparência, generosidade
    A       B          E
Verdade, unção e alegria
 A       B                     C#m
Mas bem mais do que você possa fazer
   A        B          E    (pausa)
Você me conduz à santidade

[Refrão]

          A        B            C#m
Mas olha só o que foi que aconteceu
      A        B            E
Eu mirei em você e acertei Deus (2x)

#2t1#  E       A   B      C#m       A     B
#2t2#E|-------------------------------------|
B|-5-5h7-5--5-5-4-------5-5h7-5--7p5-5-|
G|-------------------------------------|
D|-------------------------------------|
A|-------------------------------------|
E|-------------------------------------|#/2t2##/2t1#

[Segunda Parte]

          A        B            C#m
Mas olha só o que foi que aconteceu
      A        B            E
Eu mirei em você e acertei Deus 
C#m       A        B        E       C#m
    Eu mirei em você e acertei Deus
      A        B  E
Eu mirei em você

#3t1#   E            D
#3t2#E|-------------------------------------|
B|-5-7/9-9-7-5--3-5/7-7-5-3------------|
G|-------------------------------------|
D|-------------------------------------|
A|-------------------------------------|
E|-------------------------------------|#/3t2##/3t1#

#4t1#   A/C#          A B  E
#4t2#E|-------------------------------------|
B|-2-3/5-5-3-2---2-4--5----------------|
G|-------------------------------------|
D|-------------------------------------|
A|-------------------------------------|
E|-------------------------------------|#/4t2##/4t1#
Composição: Amanda PinheiroColaboração e revisão: João BorgesMatteus Pereira