A
123
X02220
B/D#
1234
X6X477
C
123
X32010
C#/F
1234
X8X699
D
123
XX0232
D/F#
1234
2X0232
Dm
123
XX0231
E
123
022100
Eb
234
X65343
Em
12
022000
1234
XX2323
F
234
133211
F#
234
244322
F#m
34
244222
G
123
320003
Gm
34
355333
Gm/F
1234
XX3333
Tom: G
[Intro] Gm  Dm  F  C  Eb  Gm  D

#1t1#     Gm           Dm            F            C
#1t2#E|--3------5--|-------------|-5---------5|----------|
B|-----3------|-6------6----|-----6---8--|---8~~----|
G|----3-3-----|-----7-------|---5---5----|---9~~----|
D|------------|----7-7---7--|------------|---10~~---|
A|------------|-5-----------|-8----------|---10~~---|
E|--3---------|-------------|------------|---8~~----|#/1t2##/1t1#

#2t1#                 Eb                Gm               D
#2t2#E|--------------3-----|--------------|-5--3--2------------|
B|--------4-------6-4-|-3------3-----|-3-------3----------|
G|------------3-------|------3--3----|-2-------------2----|
D|----------5---------|----5------5--|-0-----0----5-----4-|
A|--3--5--6-----------|--------------|--------------------|
E|--------------------|-3------------|--------------------|#/2t2##/2t1#

Gm    Gm/F    Eb     D     Gm    F          D
A      a      agnus Dei, qui tollis peccata mundi
 G        F      Em       D/F#
Miserere nobis, miserere nobis

Gm    Gm/F    Eb     D    Gm     F         D
A      a      agnus Dei, qui tollis peccata mundi
 G        F      Em       D/F#
Miserere nobis, miserere nobis

Gm     Gm/F   Eb     D     Gm    F         D  E
A      a      agnus Dei, qui tollis peccata mundi
 A          Em     F#m        B/D#   C#/F    F#
Dona nobis pacem, dona nobis pacem. Pace     em
Composição: Colaboração e revisão: Getúlio VasconcelosJoão AlicateRodolfo MachadoGuitarra \../e mais 1