busca

Agnus Dei

Comunidade Católica Shalom

Tom: Dm
[Intro] Gm  Dm  F  C  Eb  Gm  D

     Gm           Dm            F            C
E|--3------5--|-------------|-5---------5|----------|
B|-----3------|-6------6----|-----6---8--|---8~~----|
G|----3-3-----|-----7-------|---5---5----|---9~~----|
D|------------|----7-7---7--|------------|---10~~---|
A|------------|-5-----------|-8----------|---10~~---|
E|--3---------|-------------|------------|---8~~----|

                 Eb                Gm               D
E|--------------3-----|--------------|-5--3--2------------|
B|--------4-------6-4-|-3------3-----|-3-------3----------|
G|------------3-------|------3--3----|-2-------------2----|
D|----------5---------|----5------5--|-0-----0----5-----4-|
A|--3--5--6-----------|--------------|--------------------|
E|--------------------|-3------------|--------------------|

Gm    Gm/F    Eb     D     Gm    F          D
A      a      agnus Dei, qui tollis peccata mundi
 G        F      Em       D/F#
Miserere nobis, miserere nobis

Gm    Gm/F    Eb     D    Gm     F         D
A      a      agnus Dei, qui tollis peccata mundi
 G        F      Em       D/F#
Miserere nobis, miserere nobis

Gm     Gm/F   Eb     D     Gm    F         D  E
A      a      agnus Dei, qui tollis peccata mundi
 A          Em     F#m        B/D#   C#/F    F#
Dona nobis pacem, dona nobis pacem. Pace     em

Clipes