B
234
X24442
B/D#
1234
X6X477
C#
234
X46664
C#/B
1234
X2312X
D#m
1234
XX1342
F#
234
244322
F#/A#
1234
6X467X
G#m
34
466444
Tom: G
[Intro]

#1t1#   D#m           C#
#1t2#E|-2-1--------2-1-------------------|
B|-----2-x-x------2h4-x-x-----------|
G|----------------------------------|
D|----------------------------------|
A|----------------------------------|
E|----------------------------------|#/1t2##/1t1#

#2t1#   G#m
#2t2#E|-2-1--------2-1-------------------|
B|-----2-x-x------2h4-x-x-----------|
G|----------------------------------|
D|----------------------------------|
A|----------------------------------|
E|----------------------------------|#/2t2##/2t1#

#3t1#   B              C#
#3t2#E|-2-1--------2-1-------------------|
B|-----2-x-x------2h4-2-x-----------|
G|----------------------------------|
D|----------------------------------|
A|----------------------------------|
E|----------------------------------|#/3t2##/3t1#

[Primeira Parte]

  D#m
A salvação, todo poder
  F#                  G#m
A realeza é tua, ó Senhor
                 D#m
Deus forte e soberano

      D#m
Vou me alegrar e proclamar
      F#                 G#m
Que o teu amor opera maravilhas
            C#
Tu és vitorioso

[Pré-Refrão]

 B      C#/B    B/D#       C#
Só posso reconhecer que tu és

[Refrão]

     F#                       C#
Deus santo, Deus forte e imortal
 D#m
Quero te exaltar
  B              C#          G#m   C#
Quero render louvor e te adorar
     F#                       C#
Deus santo, Deus forte e imortal
 D#m
Quero te exaltar
  B              C#          G#m
Quero render louvor e te adorar
     F#/A#        B
Grandiosa é tua glória

#4t1#   D#m
#4t2#E|-2-1--------2-1-------------------|
B|-----2-x-x------2h4-x-x-----------|
G|----------------------------------|
D|----------------------------------|
A|----------------------------------|
E|----------------------------------|#/4t2##/4t1#

#5t1#   C#
#5t2#E|-2-1--------2-1-------------------|
B|-----2-x-x------2h4-x-x-----------|
G|----------------------------------|
D|----------------------------------|
A|----------------------------------|
E|----------------------------------|#/5t2##/5t1#

#6t1#   B
#6t2#E|-2-1--------2-1-------------------|
B|-----2-x-x------2h4-2-x-----------|
G|----------------------------------|
D|----------------------------------|
A|----------------------------------|
E|----------------------------------|#/6t2##/6t1#

#7t1#   G#m
#7t2#E|-2-1--------2-1-------------------|
B|-----2-x-x------2h4-2-x-----------|
G|----------------------------------|
D|----------------------------------|
A|----------------------------------|
E|----------------------------------|#/7t2##/7t1#

[Primeira Parte]

  D#m
A salvação, todo poder
  F#                  G#m
A realeza é tua, ó Senhor
                 D#m
Deus forte e soberano
      D#m
Vou me alegrar e proclamar
      F#                 G#m
Que o teu amor opera maravilhas
            C#
Tu és vitorioso

[Pré-Refrão]

 B      C#/B    B/D#       C#
Só posso reconhecer que tu és

[Refrão]

     F#                       C#
Deus santo, Deus forte e imortal
 D#m
Quero te exaltar
  B              C#          G#m   C#
Quero render louvor e te adorar
     F#                       C#
Deus santo, Deus forte e imortal
 D#m
Quero te exaltar
  B              C#          G#m
Quero render louvor e te adorar
     F#/A#        B
Grandiosa é tua glória

( D#m  F#  G#m  C# )

[Pré-Refrão]

 B      C#/B    B/D#       C#
Só posso reconhecer que tu és

[Refrão]

     F#                       C#
Deus santo, Deus forte e imortal
 D#m
Quero te exaltar
  B              C#          G#m   C#
Quero render louvor e te adorar
     F#                       C#
Deus santo, Deus forte e imortal
 D#m
Quero te exaltar
  B              C#          G#m
Quero render louvor e te adorar
     F#/A#        B
Grandiosa é tua glória
G#m      F#/A#        B
    Grandiosa é tua glória
G#m      F#/A#        B
    Grandiosa é tua glória

( D#m  C#  F#/A#  B )
Composição: Debora PiresColaboração e revisão: João BorgesWagner Aragão