busca

Estar Em Tuas Mãos

Comunidade Católica Shalom

Tom: F#m
[Intro] F#m7  D7M  A9  E

E|-9-7----------9-10-9--7----7----9-7----------9-10-9----------------|
B|-----10-9--10-----------10----------10-9-10----------10------------|
G|-------------------------------------------------------------------|
D|-------------------------------------------------------------------|
A|-------------------------------------------------------------------|
E|-------------------------------------------------------------------|

E|-10\12-10-9--------------------------------------------------------|
B|------------10-9-7-5-7---------------------------------------------|
G|-------------------------------------------------------------------|
D|-------------------------------------------------------------------|
A|-------------------------------------------------------------------|
E|-------------------------------------------------------------------|

F#m7                  D7M       A9        C#4  C#7
    Mão na terra e o coração além deste céu,
F#m7                  D7M        A9             E
    E a semente que brota é um germem de eternidade
      F#m7         D/F#         A/E    E
Vai brotando, crescendo, esperando
     F#m7      D/F#     A/E    E
É a vida que vem despontar
         D      A/C#      Bm    B4(7/9)/A  E/G#  (D/F# E)
Este trigo maduro, a colheita o    recolherá
 
               A      B/A  D/A               A     E/G#
Estar em tuas mãos, ó Pai,       e a vida ofertar
    F#m7     E       D  A/C# Bm  B4(7/9)/A      E/G#
No pão e no vinho a Ti,         e o  céu se abrirá
               A      B/A  D/A               A     E/G#
Estar em tuas mãos, Senhor,      e a vida entregar
   F#m7     E       D  A/C# Bm   B4(7/9)/A    E/G#
A minha oblação em ti                se perderá

          F#m7     D7M   A      E
Frutificarááááááaaáá, frutificarááá
F#m7   E   D  A6/C#  D           A       E
Fru----ti-fi-ca-----rááááááaaáá, frutificarááá

F#m7               D7M         A9       C#4  C#7
    Da videira a flor não restará, passará
F#m7             D7M       A9       E  
   E o fruto da terra surgirá, brotará
      F#m7    D/F#       A/E    E
Pela força do vento, da chuva
      F#m7         D/F#     A/E    E
E do sol que traz vida e calor
      D       A/C#         Bm      B4(7/9)/A  E/G#  (D/F# E)
Cada dia, crescendo e aprendendo     a recomeçar

Clipes

Cifra Club Pro

Aproveite o Cifra Club com benefícios exclusivos e sem anúncios
Cifra Club Pro
Aproveite o Cifra Club com benefícios exclusivos e sem anúncios