Caso Indefinido

Cristiano Araújo

A
123
X02220
A5(9)
12
X02200
B
234
X24442
B5(9)
134
X246XX
C#4(7/9)
X44444
C#m
234
X46654
E
123
022100
E/G#
1234
4X245X
F#m
34
244222
G#m
34
466444
Tom: G

Introdução:
            A           A5(9)       
E|--------------------------------
B|-----5-4\-------2-----0-0-x-0-x-
G|--------------2-------2-2-x-2-x-
D|-4/6---4\---2-----x-2-2-2-x-2-x-
A|----------0-------x---0---------
E|--------------------------------
    B
E|----------| 
B|--3/4-4-x-| 
G|--3/4-4-x-| 
D|x-3/4-4-x-| 
A|--1/2-----| 
E|----------| 



            C#m         C#4(7/9)    
E|--------------------------------
B|-----5-4\-------5-----4-4-x-4-x-
G|--------------6-------4-4-x-4-x-
D|-4/6---4\---6-----x-6-4-4-x-4-x-
A|----------4-------x---4---------
E|--------------------------------
  C#m
E|----------| 
B|--4h5-4-x-| 
G|--4h6-4-x-| 
D|x-4h6-4-x-| 
A|--4-------| 
E|----------| 



            A           A5(9)       
E|--------------------------------
B|-----5-4\-------2-----0-0-x-0-x-
G|--------------2-------2-2-x-2-x-
D|-4/6---4\---2-----x-2-2-2-x-2-x-
A|----------0-------x---0---------
E|--------------------------------
    B
E|----------| 
B|--2/4-4-x-| 
G|--2/4-4-x-| 
D|x-2/4-4-x-| 
A|--0/2-----| 
E|----------| 



            C#m         B5(9)
E|--------------------------------
B|-----5-4\-------5-----------2---
G|--------------6---6-------4---4-
D|-4/6---4\---6-------6---4-------
A|----------4-----------2---------
E|--------------------------------

E|----------| 
B|----------| 
G|----------| 
D|4------2--| 
A|---2h4----| 
E|----------| 


Variação 1


            C#m
E|--------------------------------
B|-----5-4\-------5-----4---------
G|--------------6-------4---------
D|-4/6---4\---6-----x-6-4---------
A|----------4-------x---4---------
E|--------------------------------



E|--------------------------------
B|--------11----9--11----9--------
G|------9-11----9--11----9--------
D|------9----11-------11----------
A|-9h11---------------------------
E|--------------------------------


Variação 2


            C#m
E|--------------------------------
B|-----5-4\-------5-----4---------
G|--------------6-------4---------
D|-4/6---4\---6-----x-6-4---------
A|----------4-------x---4---------
E|--------------------------------



E|-----7--------------------------
B|-7/9---9\7-5--------------------
G|--------------8\6-4-------------
D|---------------------6\4-2------
A|--------------------------------
E|--------------------------------


Primeira Parte:


   E
E|--------------------------------
B|-------1-----1--1-x--1-x--------
G|-----2-------2--2-x--2-x--------
D|---2-----x-2-2--2-x--2-x--x-----
A|---------x---2------------------
E|-0-------x----------------------



   F#m        E/G# A
E|--------------------------------
B|---2-2-2-2--5\---2-2-2-2--5-----
G|---2-2-2-2--4\---2-2-2-2--4\----
D|---4-4-4-4--2\---2-2-2-2--2\----
A|---------------0-0-0-0-0--------
E|-2-2-2-2-2--4\------------4\----



   B5(9)
E|--------------------------------
B|-------2------------------------
G|-----4---x----------------------
D|---4-----x-4-------------2------
A|-2-------x----2-2-2--2h4--------
E|--------------------------------


   E
Será que alguém explica a nossa 
relação
    C#m
Um caso indefinido, mas rola paixão
  F#m           E/G#    A        
Adoro esse perigo,   mexe demais 
     E/G#
comigo
     F#m                        
Mas não te tenho em minhas mãos
B5(9)

               E
Se você quiser
   C#m
Podemos ser um caso indefinido ou 
nada mais
  G#m                    A
Apenas bons amigos, namorar, casar 
ter filhos
F#m A B5(9) Passar a vida inteira juntos Segunda Parte: F#m C#m E vai saber se um dia seremos nós F#m C#m Nenhum beijo, para calar nossa voz F#m E/G# Um minuto, uma hora, não importa o tempo A B5(9) Se estamos sós Refrão: A5(9) Se você quiser B5(9) C#m A gente casa ou namora A5(9) A gente fica ou enrola B5(9) O que eu mais quero é que você me C#m queira A5(9) Se você quiser B5(9) C#m A gente casa ou namora A5(9) A gente fica ou enrola B5(9) O que eu mais quero é que você me C#m B5(9) A5(9) queira B5(9) C#m Por um momento ou pra vida inteira Repete Intro com Variações: Repete Segunda Parte: F#m C#m E vai saber se um dia seremos nós F#m C#m Nenhum beijo, para calar nossa voz F#m E/G# Um minuto, uma hora, não importa o tempo A B5(9) Se estamos sós Refrão Final: A5(9) Se você quiser B5(9) C#m A gente casa ou namora A5(9) A gente fica ou enrola B5(9) O que eu mais quero é que você me C#m queira A5(9) Se você quiser B5(9) C#m A gente casa ou namora A5(9) A gente fica ou enrola B5(9) O que eu mais quero é que você me C#m queira A5(9) Se você quiser B5(9) C#m A gente casa ou namora A5(9) A gente fica ou enrola B5(9) O que eu mais quero é que você me C#m queira A5(9) Se você quiser B5(9) C#m A gente casa ou namora A5(9) A gente fica ou enrola B5(9) O que eu mais quero é que você me C#m B5(9) A5(9) queira B5(9) C#m Por um momento ou pra vida inteira
Composição: Diego Damasceno / Junior / Maraisa / Paulo Mota / Thales LessaColaboração e revisão: Gustavo Cunhahenrique moraisnatalia teodorJoão Victore mais 6
Videoaula Caso Indefinido (aula de violão completa)