Meu Reino Encantado

Daniel

B
234
X24442
E
123
022100
F#
234
244322
Tom: G
[Intro] B  F#  B  F#

[Solo]

#1t1#          B               F#                                   B
#1t2#E|------7---7-11-7--16-14--14-14-14-|-------9----9--14-14-12-11--11-11-11--------|
B|----7---7-------------------------|----11---11---------------------------------|
G|--8-------------------------------|-11-----------------------------------------|
D|----------------------------------|--------------------------------------------|
A|----------------------------------|--------------------------------------------|
E|----------------------------------|--------------------------------------------|#/1t2##/1t1#

#2t1#                            F#
#2t2#E|------7---7-11-9-11-12|-12-11-9-7-------9-7-------------------------------------|
B|----7---7-------------|-----------11--------11-9-7----11-9-7--------7-----------|
G|--8-------------------|--------------------------------------9-8------9-8-------|
D|----------------------|---------------------------------------------------11-9--|
A|----------------------|---------------------------------------------------------|
E|----------------------|---------------------------------------------------------|#/2t2##/2t1#
#3t1#     B
#3t2#E|----------------------------------|
B|----------------------------------|
G|----------------------------------|
D|---2-4-2--------------------------|
A|-6-------4-2----------------------|
E|----------------------------------|#/3t2##/3t1#

       B
Eu nasci num recanto feliz
                      F#
Bem distante da povoação
Foi ali que eu vivi muitos anos
       E     F#         B
Com papai mamãe e os irmãos
         B
Nossa casa era uma casa grande
                      F#
Na encosta de um espigão

#4t1##4t2#E|-------8/9------11-8/9---11/14----|
B|----11----11/12-------11----------|
G|-11-------------------------------|
D|----------------------------------|
A|----------------------------------|
E|----------------------------------|#/4t2##/4t1#

        F#
 Um cercado pra parta bezerro
                             B
E ao lado  um grande mangueirão

#5t1##5t2#E|-----------------------------------|
B|-----------------------------------|
G|------------------------------6-4--|
D|---2-4-2---4-4--------2-4-2-4------|
A|-6-------6------6-4-6--------------|
E|-----------------------------------|#/5t2##/5t1#

        B
No quintal tinha um forno de lenha
                            F#
E um pomar onde as aves cantavam
Um coberto pra guardar o pilão
  E    F#          B
E as traias que papai usava
 B
De manhã eu ia no paiol
                          F#
Uma espiga de milho eu pegava

#6t1##6t2#E|-------8/9------11-8/9---------------|
B|----11----11/12-------11--11-11-11---|
G|-11----------------------------------|
D|-------------------------------------|
A|-------------------------------------|
E|-------------------------------------|#/6t2##/6t1#

 F#
Debuiava e jogava no chão
                             B
Num instante as galinhas juntava


#7t1#          B               F#                                   B
#7t2#E|------7---7-11-7--16-14--14-14-14-|-------9----9--14-14-12-11--11-11-11--------|
B|----7---7-------------------------|----11---11---------------------------------|
G|--8-------------------------------|-11-----------------------------------------|
D|----------------------------------|--------------------------------------------|
A|----------------------------------|--------------------------------------------|
E|----------------------------------|--------------------------------------------|#/7t2##/7t1#

#8t1#                            F#
#8t2#E|------7---7-11-9-11-12|-12-11-9-7-------9-7-------------------------------------|
B|----7---7-------------|-----------11--------11-9-7----11-9-7--------7-----------|
G|--8-------------------|--------------------------------------9-8------9-8-------|
D|----------------------|---------------------------------------------------11-9--|
A|----------------------|---------------------------------------------------------|
E|----------------------|---------------------------------------------------------|#/8t2##/8t1#
#9t1#     B
#9t2#E|----------------------------------|
B|----------------------------------|
G|----------------------------------|
D|---2-4-2--------------------------|
A|-6-------4-2----------------------|
E|----------------------------------|#/9t2##/9t1#

       B
Nosso carro de boi conservado
                             F#
Quatro juntas de bois de primeira
Quatro cangas, dezesseis cansis
      E        F#       B
Encostados no pé da figueira
   B
Todo sabado eu ia na vila
                           F#
Fazer compra pra semana inteira

#10t1##10t2#E|-------8/9------11-8/9---11/14---|
B|----11----11/12-------11---------|
G|-11------------------------------|
D|---------------------------------|
A|---------------------------------|
E|---------------------------------|#/10t2##/10t1#

      F#
 O papai ia gritando com os bois
                            B
Eu na frente abrindo as porteiras

#11t1##11t2#E|----------------------------------|
B|----------------------------------|
G|-----------------------------6-4--|
D|---2-4-2---4-4--------2-4-2-------|
A|-6-------6------6-4-6-------------|
E|----------------------------------|#/11t2##/11t1#

       B
Nosso sítio que era pequeno
                           F#
Pelas grandes fazendas cercado
Precisamos vender a propriedade
          E       F#       B
Para um grande criador de gado
B
E partimos pra a cidade grande
                         F#
A saudade partiu ao meu lado

#12t1##12t2#E|-------8/9------11-8/9----------------|
B|----11----11/12-------11--11-11-11----|
G|-11-----------------------------------|
D|--------------------------------------|
A|--------------------------------------|
E|--------------------------------------|#/12t2##/12t1#

     F#
A lavoura virou colonião
                            B
E acabou-se meu reino encantado

#13t1#          B               F#                                   B
#13t2#E|------7---7-11-7--16-14--14-14-14-|-------9----9--14-14-12-11--11-11-11--------|
B|----7---7-------------------------|----11---11---------------------------------|
G|--8-------------------------------|-11-----------------------------------------|
D|----------------------------------|--------------------------------------------|
A|----------------------------------|--------------------------------------------|
E|----------------------------------|--------------------------------------------|#/13t2##/13t1#

#14t1#                            F#
#14t2#E|------7---7-11-9-11-12|-12-11-9-7-------9-7-------------------------------------|
B|----7---7-------------|-----------11--------11-9-7----11-9-7--------7-----------|
G|--8-------------------|--------------------------------------9-8------9-8-------|
D|----------------------|---------------------------------------------------11-9--|
A|----------------------|---------------------------------------------------------|
E|----------------------|---------------------------------------------------------|#/14t2##/14t1#
#15t1#     B
#15t2#E|----------------------------------|
B|----------------------------------|
G|----------------------------------|
D|---2-4-2--------------------------|
A|-6-------4-2----------------------|
E|----------------------------------|#/15t2##/15t1#

       B
Hoje ali só existe tres coisas
                           F#
Que o tempo ainda não deu fim
A tapera velha desabada
        E        F#         B
E a figueira acenando pra mim
E por ultimo marcou saudade
                           F#
De um tempo bom que já se foi

#16t1##16t2#E|-------8/9------11-8/9----------------|
B|----11----11/12-------11--11-11-11----|
G|-11-----------------------------------|
D|--------------------------------------|
A|--------------------------------------|
E|--------------------------------------|#/16t2##/16t1#

       F#
 Esquecido em baixo da figueira
                      B
Nosso velho carro de boi

#17t1##17t2#E|------------------------------|
B|------------------------------|
G|---------------6-4------------|
D|---------2-4-2----------------|
A|-2-6-4-6----------------------|
E|------------------------------|#/17t2##/17t1#
Composição: Valdemar Reis / Vicente F. MachadoColaboração e revisão: Getúlio VasconcelosMarcos PauloAlan PaesRonaldoe mais 3