busca

Mundo Velho

Daniel

Tom: G#
Intro:

|------4-3h4r3--------4-4-4----------
|--4h6-----------6--4-4-4-4----------
|---------------------5-5-5----------
|---------------------6-6-6----------
|---------------------6-6-6----------
|---------------------5-5-5----------

|--4/6-3-3-----4-4-4---3-4-6--3-4-----
|------4-4-2-1-4-4-4------------------
|----------3-1-5-5-5---3-5-6--3-5-----
|--------------6-6-6------------------
|--------------6-6-6------------------
|--------------5-5-5------------------

(RIFF 1)

|--4--3--4--6-------------------------
|-------------------------------------
|--5--3--5--6-------------------------
|-------------------------------------
|-------------------------------------
|-------------------------------------

(RIFF 2)

|--3-4-6--3-4-------------------------
|-------------------------------------
|--3-5-6--3-5-------------------------
|-------------------------------------
|-------------------------------------
|-------------------------------------

(RIFF 3)

|--3-4-6--8-6-------------------------
|-------------------------------------
|--3-5-6--8-6-------------------------
|-------------------------------------
|-------------------------------------
|-------------------------------------

(RIFF 4)

|--6--3--4--6-------------------------
|-------------------------------------
|--6--3--5--6-------------------------
|-------------------------------------
|-------------------------------------
|-------------------------------------

(RIFF 5)

|--4-8-6--3--4------------------------
|-------------------------------------
|--5-8-6--3--5------------------------
|-------------------------------------
|-------------------------------------
|-------------------------------------

(RIFF 6)

|--4--6--3-4-6------------------------
|-------------------------------------
|--5--6--3-5-6------------------------
|-------------------------------------
|-------------------------------------
|-------------------------------------

(RIFF 7)

|--6--3--4--6-------------------------
|-------------------------------------
|--6--3--5--6-------------------------
|-------------------------------------
|-------------------------------------
|-------------------------------------

(RIFF 8)

|--8-6-6--3-4-------------------------
|-------------------------------------
|--8-6-6--3-5-------------------------
|-------------------------------------
|-------------------------------------
|-------------------------------------

(RIFF 9)

|--3-4-6--8-4-------------------------
|-------------------------------------
|--3-5-6--8-5-------------------------
|-------------------------------------
|-------------------------------------
|-------------------------------------

(RIFF 10)

|--8--6--8--4-------------------------
|-------------------------------------
|--8--6--8--5-------------------------
|-------------------------------------
|-------------------------------------
|-------------------------------------


Ab
Deus fez o mundo tão lindo 
                 Eb7 (RIFF 1)
Só belezas que rodeia 
                                        Ab       Eb7 Ab
Colocando lá no espaço lua nova e lua cheia     (RIFF 2)
Db
Fez o sol e a luz divina 
                      Eb7 (RIFF 3)
Que o mundo inteiro clareia 
 
No céu estrelas paradas 
               Db  Ab (REPETE RIFF 2)
A lua e o sol passeia 
 

Deus fez o mar azulado 
                     (RIFF 4)
E o castelo da sereia 
Fez peixe grande e pequeno 
                     (RIFF 5)
E também fez a baleia 
Fez a terra onde formei 
                    (RIFF 6)
Meu cafezal de ameia 
Baixadão cheio de água 
Onde meu arroz cacheia (INTRO)
 

Deus fez cachoeiras lindas 
                      (RIFF 7)
Lá na serra serpenteia 
Fez papagaio que fala 
                     (RIFF 8)
Passarada que gorjeia 
Cangara canta de bando 
                  (REPETE RIFF 7)
A natureza ponteia 
Pros catireiros de pena 
                      (REPETE RIFF 2)
Que no galho sapateia 
 

Mundo velho mudou tanto 
                          (REPETE RIFF 7)
Que já está entrando areia 
Grande pisa nos pequenos 
                       (REPETE RIFF 8)
Coitadinhos desnorteiam 
Quem trabalha não tem nada 
                     (REPETE RIFF 3)
Enriquece quem tapeia 
Pobre não ganha demanda 
Rico não vai pra cadeia (INTRO)
 

Na moral do velho mundo 
                        (REPETE RIFF 7)
Quem não presta pisoteia 
Os mandamentos de Deus 
                       (REPETE RIFF 8)
Tem gente que até odeia 
Igrejas estão vazias 
                       (REPETE RIFF 3)
Antigamente eram cheias 
O que é ruim está aumentando 
                          (RIFF 9)
O que é bom ninguém semeia 
 

Ó meu Deus venha na Terra 
                           (REPETE RIFF 7)
Porque a coisa aqui tá feia 
Mas que venha prevenido 
                        (RIFF 10)
Traga chicote e correia 
                                             (REPETE RIFF 3)
Tem até mulher pelada no lugar da santa ceia 
Só Deus pode dar um fim  
                          (REPETE RIFF 2) 
No que o diabo desnorteia

Clipes

Cifra Club Pro

Aproveite o Cifra Club com benefícios exclusivos e sem anúncios
Cifra Club Pro
Aproveite o Cifra Club com benefícios exclusivos e sem anúncios