busca

Rosto Molhado

Daniel

Tom: G
Intro: (G C)

Riff Inicial:
E|--------------------------------------------------------|
B|--------------------------------------------------------|
G|--------------------------------------------------------|
D|--------------------------------------------------------|
A|----0-2-3-5--5-7-5-3-2--2-3-2---0--0-3-2-0--------------|
E|--3---------------------------3------------3------------|

   G                                 D
Enxugue o rosto meu amor não chore não
                                 C
Rosto molhado pra você não fica bem
                                 D7
Seu novo amor lhe maltrata o coração
                                    G       (G C)
Seu sofrimento só me faz sofrer também

G                                  D
Faça de conta que teu pranto derramado
                                 G
São gotas d'água no oceano da ilusão
        G7                       C
Gotas caídas do azul de vossos olhos
            A                  D7
Vindas do triste temporal do coração
G                                    D
Eu quero ser o sol da tarde pra enxugar
                                  G
Teu lindo rosto no verão do meu calor
              G7                        C
Com os meus beijos beberei todo o teu pranto
       G           D        G
Para matar a minha sede de amor

  G                                  D
Enxugue o rosto meu amor não chore não
                                C
Rosto molhado pra você não fica bem
                                 D7
Seu novo amor lhe maltrata o coração
                                    G       (G C)
Seu sofrimento só me faz sofrer também (2x)

Riff Inicial:
E|--------------------------------------------------------|
B|--------------------------------------------------------|
G|--------------------------------------------------------|
D|--------------------------------------------------------|
A|----0-2-3-5--5-7-5-3-2--2-3-2---0--0-3-2-0--------------|
E|--3---------------------------3------------3------------|

G                                        D
Não chores mais porque teu rosto se entristece
                                   G
Eu não quero ver você tão triste assim
        G7                      C
Irá de novo clarear a nossa estrada
         A                        D7
Quando você se decidir voltar pra mim
  G                               D
Essa pessoa não merece o teu pranto
                               G
Volte depressa antes que seja pior
         G7                       C
Tire da vida o que a impede ser feliz
          G          D           G
Para nós dois o amanhã será melhor

  G                                  D
Enxugue o rosto meu amor não chore não
                                C
Rosto molhado pra você não fica bem
                                 D7
Seu novo amor lhe maltrata o coração
                                   G       (G  C)
Seu sofrimento só me faz sofrer também (2x)

Clipes

Cifra Club Pro

Aproveite o Cifra Club com benefícios exclusivos e sem anúncios
Cifra Club Pro
Aproveite o Cifra Club com benefícios exclusivos e sem anúncios