Perfect Strangers

Deep Purple

A5
134
577XXX
C5
134
X355XX
D5
134
X577XX
F5
134
133XXX
G
123
XX543X
G5
134
355XXX
Gm
3
XX5P33X
Tom: G
Introdução: C5  D5  C5  D5  F5  G5


Primeira Estrofe:

C5  D5
       Can you remember 
          C5  D5  F5  G5
Remember my  name
                       C5  D5
As I flow through your    life
                  C5  D5    F5  G5
A thousand oceans I  have flown


Segunda Estrofe:

(Guitarra Base)

#1t1#   G5  A5
#1t2#E|----------------------------------5-------|
B|----------------------------------5-------|
G|-----------------------5------------------|
D|-5/7---------------5h7-5-7-5-7------------|
A|-5/7---------------5h7---7-5-7------------|
E|-3/5---------------------------5----------|#/1t2##/1t1#

#2t1##2t2#E|----------------5-------------------------|
B|----------------5-------------------------|
G|-----5------------------------------------|  (2x)
D|-5h7-5-7-5-7------------------------------|
A|-5h7---7-5-7------------------------------|
E|-------------5----------------------------|#/2t2##/2t1#

(Guitarra Riff)

#3t1##3t2#E|------------------------------------------|
B|------------------------------------------|
G|-----2-----0------------------------------|  (4x)
D|---2----------2---------------------------|
A|-0------0---------------------------------|
E|------------------------------------------|#/3t2##/3t1#

     G5  A5
And cold    spirits of ice

All my life

I am the echo of your past


C5  D5  C5  D5  F5  G5


Terceira Estrofe:

C5  D5
       I am returning 
               C5   D5  F5  G5
The echo of a point in time
                C5  D5
Distant faces shine
                    C5  D5    F5  G5
A thousand warriors I  have known


Quarta Estrofe:

(Guitarra Base)

#4t1##4t2#E|----------------------------------5-------|
B|----------------------------------5-------|
G|-----------------------5------------------|
D|-5/7---------------5h7-5-7-5-7------------|
A|-5/7---------------5h7---7-5-7------------|
E|-3/5---------------------------5----------|#/4t2##/4t1#

#5t1##5t2#E|----------------5-------------------------|
B|----------------5-------------------------|
G|-----5------------------------------------|  (2x)
D|-5h7-5-7-5-7------------------------------|
A|-5h7---7-5-7------------------------------|
E|-------------5----------------------------|#/5t2##/5t1#

(Guitarra Riff)

#6t1##6t2#E|------------------------------------------|
B|------------------------------------------|
G|-----2-----0------------------------------|  (4x)
D|---2----------2---------------------------|
A|-0------0---------------------------------|
E|------------------------------------------|#/6t2##/6t1#

     G5  A5
And laughing 

As the spirits appear

All your life

Shadows of another day

#7t1##7t2#E|-------5--------------------------------------------|
B|-----5---5-8p5---5----------------------------------|
G|-7b9-----------7---7-5-7p5h7p5h7p5------------------|
D|-----------------------------------7p5-7p5----------|
A|-------------------------------------------8~-------|
E|----------------------------------------------------|#/7t2##/7t1#


Primeiro Refrão:

#8t1#   F5          C5          D5                G5
#8t2#E|----------------------------------------------3-3-3-|
B|-------------8-----------------5h6p5--------------3-|
G|--------10------9------------7-------7--5--4--------|
D|-7--10-------------10------7------------------------|
A|-------------------------5--------------------------|
E|----------------------------------------------------|#/8t2##/8t1#
#9t1#   D5
#9t2#E|---------5h6p5h6p...--------------------------------|
B|-------6-------------6------------------------------|
G|-----7-----------------5----------------------------|
D|---7---------------------5--------------------------|
A|-5--------------------------------------------------|
E|----------------------------------------------------|#/9t2##/9t1#
#10t1#   G
#10t2#E|----------------------------------------------------|
B|-3------3------3------3------3------3------3------3-|
G|-4------4------4------4------4------4------4------4-|
D|-5--x-x-5--x-x-5--x-x-5--x-x-5--x-x-5--x-x-5--x-x-5-|
A|----------------------------------------------------|
E|----------------------------------------------------|#/10t2##/10t1#
#11t1#       Gm
#11t2#E|----------------------------------------------------|
B|-----3------3------3------3------3------3------3----|
G|-----3------3------3------3------3------3------3----|
D|-x-x-5--x-x-5--x-x-5--x-x-5--x-x-5--x-x-5--x-x-5----|
A|----------------------------------------------------|
E|----------------------------------------------------|#/11t2##/11t1#

#12t1##12t2#E|----------------------------------------------------|
B|-----3----------------------------------------------|
G|-----3----------------------------------------------|
D|-x-x-5--x-x-----------------------------------------|
A|----------------------------------------------------|
E|----------------------------------------------------|#/12t2##/12t1#

F5  C5
       And if you hear me 
        D5
Talking on the wind
              G5
You've got to understand
           D5
We must remain
           C5     G  Gm
Perfect Strangers


Interlúdio 1:

(Parte 1 - 3x)

#13t1##13t2#E|----------------------------------------------------|
B|----------------------------------------------------|
G|----------------------------------------------------|
D|----------------------------------------------------|
A|-0--12-12-12--0--13-13-13--10-10-10--0--------------|
E|----------------------------------------------------|#/13t2##/13t1#

#14t1##14t2#E|----------------------------------------------------|
B|----------------------------------------------------|
G|----------------------------------------------------|
D|----------------------------------------------------|
A|-12-12-12--8-8-8--12-12-12--10-10-10--10------------|
E|----------------------------------------------------|#/14t2##/14t1#

(Parte 2)

#15t1##15t2#E|----------------------------------------------------|
B|----------------------------------------------------|
G|----------------------------------------------------|
D|----------------------------------------------------|
A|-0--12-12-12--0--13-13-13--10-10-10--0--------------|
E|----------------------------------------------------|#/15t2##/15t1#


#16t1##16t2#E|----------------------------------------------------|
B|----------------------------------------------------|
G|----------------------------------------------------|
D|----------------------------------------------------|
A|-12-12-12--8-8-8--12-12-12--10-10-10--8-8-8--7-7-7--|
E|----------------------------------------------------|#/16t2##/16t1#

#17t1##17t2#E|----------------------------------------------------|
B|----------------------------------------------------|
G|----------------------------------------------------|
D|----------------------------------------------------|
A|-5-5-5--3-3-3--1-1----------------------------------|
E|----------------------------------------------------|#/17t2##/17t1#

I know I must remain inside this silent
well of sorrow


C5  D5  C5  D5  F5  G5


Quinta Estrofe:

C5  D5
       A strand of silver 
           C5     D5  F5  G5
Hanging through the sky
                        C5  D5
Touching more than you see
                  C5  D5   F5  G5
The voice of ages in your mind


Sexta Estrofe:

(Guitarra Base)

#18t1##18t2#E|----------------------------------5-------|
B|----------------------------------5-------|
G|-----------------------5------------------|
D|-5/7---------------5h7-5-7-5-7------------|
A|-5/7---------------5h7---7-5-7------------|
E|-3/5---------------------------5----------|#/18t2##/18t1#

#19t1##19t2#E|----------------5-------------------------|
B|----------------5-------------------------|
G|-----5------------------------------------|  (2x)
D|-5h7-5-7-5-7------------------------------|
A|-5h7---7-5-7------------------------------|
E|-------------5----------------------------|#/19t2##/19t1#

(Guitarra Riff)

#20t1##20t2#E|------------------------------------------|
B|------------------------------------------|
G|-----2-----0------------------------------|  (4x)
D|---2----------2---------------------------|
A|-0------0---------------------------------|
E|------------------------------------------|#/20t2##/20t1#

   G5     A5
Is aching 

With the dead of the night

Precious life 

Your tears are lost in falling rain


Segundo Refrão:

#21t1#                   F5           C5
#21t2#E|-8b10r8--7h8p7p5--------5---------------------------|
B|--------------------------6---8--5------------------|
G|-------------------5--------5-------5---------------|
D|-----------------7----------------------------------|
A|----------------------------------------------------|
E|----------------------------------------------------|#/21t2##/21t1#
#22t1#   D5              G5
#22t2#E|----------------------------------------------------|
B|----------17h18p17----------------------------------|
G|-------19----------19--19~--------------------------|
D|----19----------------------------------------------|
A|-17-------------------------------------------------|
E|----------------------------------------------------|#/22t2##/22t1#
#23t1#   D5            C5
#23t2#E|----------------------------------------------------|
B|-------5h6p5----------------------------------------|
G|-----7-------7b9~-----------------------------------|
D|---7------------------------------------------------|
A|-5--------------------------------------------------|
E|----------------------------------------------------|#/23t2##/23t1#
#24t1#   G
#24t2#E|----------------------------------------------------|
B|-3------3------3------3------3------3------3------3-|
G|-4------4------4------4------4------4------4------4-|
D|-5--x-x-5--x-x-5--x-x-5--x-x-5--x-x-5--x-x-5--x-x-5-|
A|----------------------------------------------------|
E|----------------------------------------------------|#/24t2##/24t1#
#25t1#   Gm
#25t2#E|-6b8r6-5-6-5h6p5p3----------------------------------|
B|-------------------6p4p3----------------------------|
G|-------------------------5p3------------------------|
D|-----------------------------5~~--------------------|
A|----------------------------------------------------|
E|----------------------------------------------------|#/25t2##/25t1#

F5  C5
       And if you hear me 
        D5
Talking on the wind
              G5
You've got to understand
         D5
We must remain
           C5     G  Gm
Perfect Strangers


Interlúdio 2: 

(Parte 1 - 3x)

#26t1##26t2#E|----------------------------------------------------|
B|----------------------------------------------------|
G|----------------------------------------------------|
D|----------------------------------------------------|
A|----------------------------------------------------|
E|-0--12-12-12--0--13-13-13--10-10-10--0--------------|#/26t2##/26t1#

#27t1##27t2#E|----------------------------------------------------|
B|----------------------------------------------------|
G|----------------------------------------------------|
D|----------------------------------------------------|
A|----------------------------------------------------|
E|-12-12-12--8-8-8--12-12-12--10-10-10--10------------|#/27t2##/27t1#


(Parte 2)

#28t1##28t2#E|----------------------------------------------------|
B|----------------------------------------------------|
G|----------------------------------------------------|
D|----------------------------------------------------|
A|----------------------------------------------------|
E|-0--12-12-12--0--13-13-13--10-10-10--0--------------|#/28t2##/28t1#

#29t1##29t2#E|----------------------------------------------------|
B|----------------------------------------------------|
G|----------------------------------------------------|
D|----------------------------------------------------|
A|----------------------------------------------------|
E|-12-12-12--8-8-8--12-12-12--10-10-10--8-8-8--7-7-7--|#/29t2##/29t1#

#30t1##30t2#E|----------------------------------------------------|
B|----------------------------------------------------|
G|----------------------------------------------------|
D|----------------------------------------------------|
A|----------------------------------------------------|
E|-5-5-5--3-3-3--1------------------------------------|#/30t2##/30t1#

(Parte 3 – Até o final)

#31t1##31t2#E|----------------------------------------------------|
B|----------------------------------------------------|
G|----------------------------------------------------|
D|----------------------------------------------------|
A|----------------------------------------------------|
E|-0--12-12-12--0--13-13-13--10-10-10--0--------------|#/31t2##/31t1#

#32t1##32t2#E|----------------------------------------------------|
B|----------------------------------------------------|
G|----------------------------------------------------|
D|----------------------------------------------------|
A|----------------------------------------------------|
E|-12-12-12--8-8-8--12-12-12--10-10-10--10------------|#/32t2##/32t1#
Composição: Ian Gillan / Ritchie Blackmore / Roger GloverColaboração e revisão: MárciusFilipe Barrientos
Videoaula Perfect Strangers (guitarra)