busca

Cheer

Descendents

Tom: B

From: "misfit 138" 
Date: Sat, 04 Oct 1997 11:24:49 PDT

Archivist: Corrected previous submission -- added the lyrics.

Album:   Enjoy

by Misfti138
*

Intro (Play 2 times):
-------------------------------------------|
-------------------------------------------|
----------------------11--11---------------|
-9--9-----------------11--11---------------|
-9--9--7--9--7--------9---9---7--9--7------|
-7--7-----------7----------------------7---|


B

B E B

Verse 1:
Ab
It's been so long since I had a smile...
...I stayed sad for such a long while.

B                     E                    B
If you could cheer me up, I could learn to love you.

Ab
You kiss me now and I turn away...
...I think I'm still kissing yesterday.

B                     E                    B
If you could cheer me up, I could learn to love you.


Chorus (Play 2 times):
-----------------------------|
-----------------------------|
-----------------------------|
-----9--9--------------------|
-----9--9------7--9--7-------|
-----7--7---------------7----|
So love me and cheer me up;


------------------------------------------------|
------------------------------------------------|
----------11--11--------------------------------|
----------11--11--------------------------------|
----------9---9--------------------7--9--7------|
--------------------------------------------7---|
Cuz you're the kinda woman that can make it happen


B

Ebm                   C#m                B
Don't wanna spend the rest of my days in yesterday's daydream.

B E B

Verse 2:
Out with the bad and in with the good.
I feel my heart ?? knockin' on wood.
If you could cheer me up, I could learn to love you.

So generous I'm being kind.
With selfishness in the back of my mind.
If you could cheer me up, I could learn to love you.

Chorus

Don't wanna spend the rest of my days in yesterday's daydream.
Don't wanna spend the rest of my days in yesterday's promises.

Verse 3:
It's been so long since I had a smile.
I stayed sad for such a long while.
If you could cheer me up, I could learn to love you.

No more giving my mind away.
Tomorrow's....(??)...yesterday.
If you could cheer me up, I could learn to love you.

Chorus

Don't wanna spend the rest of my days in yesterday's daydream.
Don't wanna spend the rest of my days in yesterday's promises.
Don't wanna spend the rest of my days in yesterday.
Don't wanna spend the rest of my days singing yesterday's love songs.

C'mon and cheer me up

Clipes

Cifra Club Pro

Aproveite o Cifra Club com benefícios exclusivos e sem anúncios
7 dias grátis
Cifra Club Pro
Aproveite o Cifra Club com benefícios exclusivos e sem anúncios
7 dias grátis