busca

Coolidge Solo

Descendents

Tom: C
album:ALL!
awesome song

I dont think its right but it sounds good to me please tell me ur opinion

Vote!
b-bend up v-vibrato p-palm mute p=pull off h-hammer on
e|----------------------------10p810p810p810p810p8---------------------->
b|-8b10-8-5-8-5v----------5-8---------------------10p810p810p810p810p8-->
g|---------------------5-7--------------------------------------------9->
d|---------------pp-5-7 ------------------------------------------------>
a|---------------00----------------------------------------------------->
e|---------------00----------------------------------------------------->

e|------------10v-|
b|----------------|
g|--------5h7-----|
d|-pp--5h7--------|
a|-00-------------|
e|-00-------------|

Clipes