busca

Coolidge

Descendents

Tom: G#
From: P*
Date: Mon, 31 Jul 95 23:26:41 PST


xpy = x pull off to y
xhy = x hammer on y
xsy = x slide to y
(x) = touch harmonic thing at x


e-1s3-------------------------------------------|
B-----4--3--4-3h4p3h4p3h4p3h4p3h4p3h4p3~~~~~~~~-|
G-----------------------------------------------|
D-----------------------------------------------|
A-----------------------------------------------|
E-----------------------------------------------|

e-----------------------------------------------|
B----------------------4--------------4---6---4-|
G-5--5-----------3--5-----5---3----5------------|
D-5--5-----3--5---------------------------------|
A-3--3--6---------------------------------------|
E-x--x------------------------------------------|

e-8h9h11p9p8--------------------------------------------|
B-------------11p9-9h11p9--8-------8h9p8----------------|
G------------------------------10---------10--9--10--9--|
D-------------------------------------------------------|
A-------------------------------------------------------|
E-------------------------------------------------------|

e-------------------------------------|
B-------------------------------------|
G-5--5--5-------------------(5)-------|
D-5--5--5-----3--5----------(5)-------|
A-3--3--3--6------------3-------------|
E-x--x--x-----------------------------|
                             ^Hit whammy bar.

This is the main riff.  Repeat it a bunch of time.

e----------------------|
B----------------------|
G----------------------|
D--------6-------------|
A--------------5-5-6---|
E---6-6-----6----------|


Comments or fixes or anything at all will be really appreciated.
Blobbie Pancreas
*

Clipes