busca

Im Not A Loser

Descendents

Tom: A
Date: Mon, 13 Nov 1995 19:29:27 -0600 (CST)
From: "*" 

there are 2 crd progressions in this song, there Tabed out here it wont
turn out right in this font, put it in a font like like GENEVA or
HALVAETICA (origanally done in geneva). this is a really easy song once
you learn it.  might have gotten some of the lyrics/riffs parts mixed up.

Riff 1
      C#5                D5                    E5                D5
E--------------------------------------------------------|
A---4--4--4--4--5--5--5--5--7--7--7--7--5--5--5--5-------|
D---6--6--6--6--7--7--7--7--9--9--9--9--7--7--7--7-------|
G--------------------------------------------------------|
B--------------------------------------------------------|
E--------------------------------------------------------|
theres more to this riff, but I didnt finish it cause its just the same
chords over, you can figure that out.

Riff 2
        F#5        A5       D5
B5                                                  C#5
E---2--2--2--5--5---------------------------------------------|
A---4--4--4--7--7--5--2--2--2--2--2--2--2--2--2--2--4--4------|
D-------------------7--4--4--4--4--4--4--4--4--4--4--6--6-----|
G-------------------------------------------------------------|
B-------------------------------------------------------------|
E-------------------------------------------------------------|

(contUd)
      E5   C#5
E-----------|
A---7--4----| just repeat this riff over and over...
D---9--6----|
G-----------|
B-----------|
E-----------|
so, it goes like this...

intro:[RIFF1]
[RIFF2]
think that iUm a loser cause i wear my pants really too low
think that im a slob
cause i got holes in my shoes
think my cock is like
i like my dirty shirt
well you can just fuck off
cause im workin sisty a week
[RIFF1]
you think that life is really tough
when your daddy wont buy you a brand new car
take your girl out she wont fuck you
after you just bought her a gram of coke
spend all your money on shitty coke
[RIFF2]
im not a loser! thats right
in not a loser!
[RIFF1]
cruise down the bulavard wasting mommys gas
while your looking for the kicks on friday night
only goal in life is to smoke a joint
decide how yourew gonna get laid tonight
[RIFF2]
your-a fucking son of a bitch
you arrogent asshole
your pants are too tight
you fucking homo
you suck, *
you dont belong here
go away you fucking gay
im not a loser!

im not too sure about how the last couple of lines go...

-=+ANDREW+=-

Clipes

Cifra Club Pro

Aproveite o Cifra Club com benefícios exclusivos e sem anúncios
Cifra Club Pro
Aproveite o Cifra Club com benefícios exclusivos e sem anúncios