|1 / " /> |1 / ">
busca

I'm The One

Descendents

Tom: C
INTRO:
e:--------|--------|-------|--------|-------|--------|-------------------|
B:--------|--------|-------|--------|-------|--------|-------------------|
G:--9-----|-(9)----|-8-----|-(8)----|-9-----|-(9)----|-8--8--8--8--8--8--|
D:--9-----|-(9)----|-8-----|-(8)----|-9-----|-(9)----|-8--8--8--8--8--8--|
A:--7-----|-(7)----|-6-----|-(6)----|-7-----|-(7)----|-6--6--6--6--6--6--|
E:--------|--------|-------|--------|-------|--------|-------------------|
  
e:-------||
B:-------||
G:-8\----||
D:-8\----||
A:-6\----||
E:-------||

CHORUS:
e:---------||--------------------|----------------------|
B:---------||--------------------|----------------------|
G:-7-7-9-5-||-(5)-5-5-5-5-5-5-12-|-12-12-12-12-7-7-9-10-|
D:-7-7-9-5-||-(5)-5-5-5-5-5-5-12-|-12-12-12-12-7-7-9-10-|
A:-5-5-7-3-||-(3)-3-3-3-3-3-3-10-|-10-10-10-10-5-5-7--8-|
E:---------||--------------------|----------------------|

e:---------------------------|--------------------|-------------------|
B:---------------------------|--------------------|-------------------|
G:-(10)-10-10-10-10-10-10-13-|-13-13-13---7-7-9-5-|-(5)-5-5-5-5-5-5-3-|
D:-(10)-10-10-10-10-10-10-13-|-13-13-13---7-7-9-5-|-(5)-5-5-5-5-5-5-3-|
A:-(-8)--8--8--8--8--8--8-11-|-11-11-11---5-5-7-3-|-(3)-3-3-3-3-3-3-1-|
E:---------------------------|--------------------|-------------------|


e:-----------------|-------------------|-------------------||
B:-----------------|-------------------|-------------------||
G:-3-3-3-3-7-7-7-9-|-(9)-9-9-9-9-9-9-8-|-(8)-8-8-8-7---9---||
D:-3-3-3-3-7-7-7-9-|-(9)-9-9-9-9-9-9-8-|-(8)-8-8-8-7---9---||
A:-1-1-1-1-5-5-5-7-|-(7)-7-7-7-7-7-7-6-|-(6)-6-6-6-5---7---||
E:-----------------|-------------------|-------------------||

VERSE:
                                      |1

   |---p.m.----|     |-----------|    |

e:------------------|-----------------|-----------------|-----------------|
B:------------------|-----------------|-----------------|-----------------|
G:--5-5-5-555-5-5---|-2-2-2-222-2-2---|-5-5-5-5-5-5-5-5-|-2-2-2-2-2-2-2-2-|
D:--5-5-5-555-5-5---|-2-2-2-222-2-2---|-5-5-5-5-5-5-5-5-|-2-2-2-2-2-2-2-2-|
A:--3-3-3-333-3-3---|-0-0-0-000-0-0---|-3-3-3-3-3-3-3-3-|-0-0-0-0-0-0-0-0-|
E:------------------|-----------------|-----------------|-----------------|


  |2                                  
  | 
  |
e:|-----------------|---------------||
B:|---------5-------|---------------||
G:|-5-5-5-5-5---5---|-4-5-4-2-------||
D:|-5-5-5-5-5---5---|-4-5-4-2-------||
A:|-3-3-3-3---------|-------0-------||
E:|-----------------|---------------||

BRIDGE:
e:-1---x-1---1-1-1-|-3---x-3---3-3-3-|-1---x-1---1-1-1-|-3---x-3---3-3-3-|
B:-1---x-1---1-1-1-|-3---x-3---3-3-3-|-1---x-1---1-1-1-|-3---x-3---3-3-3-|
G:-2---x-2---2-2-2-|-4---x-4---4-4-4-|-2---x-2---2-2-2-|-4---x-4---4-4-4-|
D:-3---x-3---3-3-3-|-5---x-5---5-5-5-|-3---x-3---3-3-3-|-5---x-5---5-5-5-|
A:-3---x-3---3-3-3-|-5---x-5---5-5-5-|-3---x-3---3-3-3-|-5---x-5---5-5-5-|
E:-1---x-1---1-1-1-|-3---x-3---3-3-3-|-1---x-1---1-1-1-|-3---x-3---3-3-3-|

e:-------------------------|-------------------------|--------|----------|
B:-------------------------|-------------------------|--------|----------|
G:-10-10-10-10-10-10-10-10-|-12-12-12-12-12-12-12-12-|-9------|-(9)------|
D:-10-10-10-10-10-10-10-10-|-12-12-12-12-12-12-12-12-|-9------|-(9)------|
A:--8--8--8--8--8--8--8--8-|-10-10-10-10-10-10-10-10-|-7------|-(7)------|
E:-------------------------|-------------------------|--------|----------|


e:-------------------|---------||
B:-------------------|---------||
G:-8--8--8--8--8--8--|-8\------||
D:-8--8--8--8--8--8--|-8\------||
A:-6--6--6--6--6--6--|-6\------||
E:-------------------|---------||

MIDDLE SECTION:
                                         |1
                                         | |----p.m.---|
                                         |
e:-(3---x-3---3-3-3)-|-(3---x-3---3-3-3)-|------------------|
B:-(3---x-3---3-3-3)-|-(3---x-3---3-3-3)-|------------------|
G:--4---x-4---4-4-4--|--4---x-4---4-4-4--|--2-2-2-2-2-2-2---|
D:--5---x-5---5-5-5--|--5---x-5---5-5-5--|--2-2-2-2-2-2-2---|
A:--5---x-5---5-5-5--|--5---x-5---5-5-5--|--0-0-0-0-0-0-0---|
E:--3---x-3---3-3-3--|--3---x-3---3-3-3--|------------------|


                           |2
  |-----------------|      | |----p.m.---|     |-----------------|
                           |
e:------------------------||------------------|------------------------||
B:------------------------||------------------|------------------------||
G:-10-10-10-10-10-10-10---||--2-2-2-2-2-2-2---|-10-10-10-10-10-10-10---||
D:-10-10-10-10-10-10-10---||--2-2-2-2-2-2-2---|-10-10-10-10-10-10-10---||
A:--8--8--8--8--8--8--8---||--0-0-0-0-0-0-0---|--8--8--7--7--------8---||
E:------------------------||------------------|-------------10-10--8---||

I'm not sure about this part (right before last chorus):

e:---------------------|-------------------||
B:-------------------5-|-(5)-5-----5-------||
G:-12---12-10---10---6-|-(6)-6-----6-------||
D:-12---12-10---10---7-|-(7)-7-7-7-7---7-7-||
A:-10---10--8----8---7-|-(7)-7-7-7-7---7-7-||
E:-10---10--8----8---5-|-(5)-5-5-5-5---5-5-||

Clipes

Cifra Club Pro

Aproveite o Cifra Club com benefícios exclusivos e sem anúncios
7 dias grátis
Cifra Club Pro
Aproveite o Cifra Club com benefícios exclusivos e sem anúncios
7 dias grátis