busca

Nothing With You

Descendents

Tom: C
Tabbed by:John
Email:LESSTHANJ*

Tuning: standard
intro

e|------------------------------------------------------|
B|------------------------------------------------------|
G|-9~----------777777-555555555555-777\6/7-8888\7\6/8---|
D|-9~---999999-777777-555555555555-777\6/7-8888\7\6/8---|
A|-7~---999999-555555-333333333333-555\4/5-6666\5\4/6---|
E|------777777------------------------------------------|
        ...... ...... ..........


e|------------------------------------------------------|
B|-5/67p66\44h6-----------------------------------------|
G|------------------------------------------------------|
D|------------------------------------------------------|
A|------------------------------------------------------|
E|------------------------------------------------------|

e|------------------------------------------------------|
B|------------------------------------------------------|
G|--------777777--666666666666-888888-------------------|
D|-999999-777777--666666666666-888888-------------------|
A|-999999-555555--444444444444-666666-------------------|
E|-777777-----------------------------------------------|
   ...... ......  ......

e|--------------------------------------------------|
B|--------------------------------------------------|
G|88888888-66666666------------------55555555-------|
D|88888888-66666666-1010101010101010-55555555-------|
A|66666666-44444444-1010101010101010-33333333-------|
E|------------------8-8-8-8-8-8-8--8----------------|

e|------------------------------------------------------|
B|------------------------------------------------------|
G|--------777777--666666666666-888888-------------------|
D|-999999-777777--666666666666-888888-------------------|
A|-999999-555555--444444444444-666666-------------------|
E|-777777-----------------------------------------------|
   ...... ......  ......


e|--------------------------------------------------|
B|--------------------------------------------------|
G|88888888-66666666------------------55555555-------|
D|88888888-66666666-1010101010101010-55555555-------|
A|66666666-44444444-1010101010101010-33333333-------|
E|------------------8-8-8-8-8-8-8--8----------------|


e|---------------------------|
B|----------------x----------|
G|-----------xx--xx-6-5------|(x2)
D|---10-xx-7-xx-5xx-6-5------|
A|---10-xx-7-xx-5xx-6-5------|
E|---8--xx-9-xx-7xx-4-3------|

e|--------------------------------------------------|
B|--------------------------------------------------|
G|88888888-66666666------------------55555555-------|
D|88888888-66666666-1010101010101010-55555555-------|
A|66666666-44444444-1010101010101010-33333333-------|
E|------------------8-8-8-8-8-8-8--8----------------|

e|------------------------------------------------------|
B|------------------------------------------------------|
G|--------777777--666666666666-888888-------------------|
D|-999999-777777--666666666666-888888-------------------|
A|-999999-555555--444444444444-666666-------------------|
E|-777777-----------------------------------------------|

e|------------------------------------------------------|
B|------------------------------------------------------|
G|-9~----------777777-555555555555-777\6/7-8888\7\6/8---|
D|-9~---999999-777777-555555555555-777\6/7-8888\7\6/8---|
A|-7~---999999-555555-333333333333-555\4/5-6666\5\4/6---|
E|------777777------------------------------------------|


e|------------------------------------------------------|
B|-5/67p66\44h6-----------------------------------------|
G|------------------------------------------------------|
D|------------------------------------------------------|
A|------------------------------------------------------|
E|------------------------------------------------------|

e|------------------------------------------------------|
B|------------------------------------------------------|
G|--------777777--666666666666-888888-------------------|
D|-999999-777777--666666666666-888888-------------------|
A|-999999-555555--444444444444-666666-------------------|
E|-777777-----------------------------------------------|
   ...... ......  ......


e|--------------------------------------------------|
B|--------------------------------------------------|
G|88888888-66666666------------------55555555-------|
D|88888888-66666666-1010101010101010-55555555-------|
A|66666666-44444444-1010101010101010-33333333-------|
E|------------------8-8-8-8-8-8-8--8----------------|


e|---------------------------|
B|----------------x----------|
G|-----------xx--xx-6-5------|(x2)
D|---10-xx-7-xx-5xx-6-5------|
A|---10-xx-7-xx-5xx-6-5------|
E|---8--xx-9-xx-7xx-4-3------|

e|------------------------------------------------------|
B|------------------------------------------------------|
G|-9~----------777777-555555555555-777\6/7-8888\7\6/8---|
D|-9~---999999-777777-555555555555-777\6/7-8888\7\6/8---|
A|-7~---999999-555555-333333333333-555\4/5-6666\5\4/6---|
E|------777777------------------------------------------|


e|--------------------------------------------------|
B|--------------------------------------------------|
G|88888888-66666666------------------55555555-------|
D|88888888-66666666-1010101010101010-55555555-------|
A|66666666-44444444-1010101010101010-33333333-------|
E|------------------8-8-8-8-8-8-8--8----------------|

Im sorry i dont know the solo its pretty hard ill do it later but this is the entire 
it may not sound perfect when your playing it by your self but it will sound perfect
when playing with a band just play the song the whole way thru just follow this thru
out the whole song its simple


if you have anyquestions email me
L*

| /  slide up
| \  slide down
| h  hammer-on
| p  pull-off
| ~  vibrato
| +  harmonic
| x  Mute note
| . palm mute

Clipes

Cifra Club Pro

Aproveite o Cifra Club com benefícios exclusivos e sem anúncios
7 dias grátis
Cifra Club Pro
Aproveite o Cifra Club com benefícios exclusivos e sem anúncios
7 dias grátis