busca

Parents

Descendents

From:	*
Sent:	14 July 1998 06:17 PM

Submitted by H*

As appears on: Two things at once, somery and Milo goes to college

Tabbed by: Don Spencer        Appended by: me


----------------------------------------------------------------------


G: -----------------:
D: ---9-10-7=-9}-10-:
A: 77---------------:
E: -----------------:


----------------------------------------------------------------------


G: ----------------:
D: -------7=-9}-10-:
A: ---7-8----------:
E: 88--------------:


----------------------------------------------------------------------


G: --------------:
D: ------10-10-7-:
A: 77-88---------:
E: --------------:


----------------------------------------------------------------------


G: ----------
D: ----------
A: 77-77-77}7
E: ----------


----------------------------------------------------------------------


G: 7-----10-9-7-:--7-9}-10-        
D: -10-9--------:----------
A: -------------:----------
E: -------------:----------


----------------------------------------------------------------------

Clipes

Cifra Club Pro

Aproveite o Cifra Club com benefícios exclusivos e sem anúncios
7 dias grátis
Cifra Club Pro
Aproveite o Cifra Club com benefícios exclusivos e sem anúncios
7 dias grátis