busca

Sour Grapes

Descendents

Tuning(s):Normal

Tabbed by aaron Ipock (*)
*
* = repeat

        Verse...
G|--------------------------------------------------------------------|
D|----------------------------------*---------------------------------|
A|22222222222-----------------------*---------------------------------|
E|------------013333333333333-4100------------------------------------|

        Pre-chorus...   "Why must you smoke that..."
G|----------------------111-3333--------------------------------------|
D|----33-------------33-----------------------------------------------|
A|111----111-44--111--------------------------------------------------|
E|--------------------------------------------------------------------|

        Chorus...
G|--------------------------------------------------------------------|
D|---------------------------------*----------------------------------|
A|5-555-------------77777-55555-0--*----------------------------------|
E|-----0-3-5555555----------------------------------------------------|

G|--------------------------------------------------------------------|
D|--------------------------------------------------------------------|
A|7-77-77-7-77-77-----------------------------------------------------|
E|----------------0-3-555--0-3-555------------------------------------|

        "Whatcha gonna do/well I wish I knew..."
G|--------------------------------------------------------------------|
D|---------------------------------------------------*----------------|
A|------------------55555555-33333333----------------*----------------|
E|55555555-00000000-------------------0-3-55555555--------------------|

        After this part play the chorus a couple more times,
        then ending is pretty easy.  It's like 5--5--3--0,
        on the A string or something.

+=+=+=+=+=+=+=+=+=+=+=
+Favor de no molestar=
+=+=+=+=+=+=+=+=+=+=+=



Clipes