busca

How It Ends

DeVotchka

Tom: C
Intro/Verse/Chorus:
   C                               Em
e------------------------------------------------------------------|
b--7-7-7-7-7-7-7-7-7-7-7-7-7-7-7-7-7-7-7-7-7-7-7-7-7-7-7-7-7-7-7-7-|
g--8-8-8-8-8-8-8-8-8-8-8-8-8-8-8-8-8-8-8-8-8-8-8-8-8-8-8-8-8-8-8-8-|
d--9-9-9-9-9-9-9-9-9-9-9-9-9-9-9-9-8-8-8-8-8-8-8-8-8-8-8-8-8-8-8-8-|
a------------------------------------------------------------------|
E------------------------------------------------------------------|

Violin/Bass(but played an octave or two lower) Part (Chorus)
e-------------------------------------------------|
b-------------------------------------------8-8---|
g--------7-9----------7-9---9-9-9-9---10-10-------|
d--10-10--------10-10-----------------------------|
a-------------------------------------------------|
E-------------------------------------------------|

http://*

Clipes