Queen Of The Surface Streets

DeVotchka

Tom: G
Album: Una Volta

#1t1#Intro
#1t2#e-------------0----------------------0-----------|
b-------10------10----10-------10------10----10--|
g----11----11------11-------12----12------12-----|
d-12---------------------11----------------------|
a------------------------------------------------|
E------------------------------------------------|#/1t2##/1t1#

#2t1##2t2#e-------------0----------------------------------|
b-------10------10----10-10-10-10-10-10-10-10-10-|
g----11----11------11----12-12-12-12-12-12-12-12-|
d-12---------------------11-11-11-11-11-11-11-11-|
a------------------------------------------------|
E------------------------------------------------|#/2t2##/2t1#

He just strums these chords for the rest of the song and plays them an octave lower for 
chorus.  I recommend playing them this way:

#3t1##3t2#e-------------------------------------------------|
b-10-10-10-10-10-10-10-10-10-10-10-10-10-10-10-10-|
g-11-11-11-11-11-11-11-11-12-12-12-12-12-12-12-12-|
d-12-12-12-12-12-12-12-12-11-11-11-11-11-11-11-11-|
a-------------------------------------------------|
E-------------------------------------------------|#/3t2##/3t1#

#4t1#(fingers)
#4t2#e---------------------------------|
b-1-1-1-1-1-1-1-1-1-1-1-1-1-1-1-1-|
g-3-3-3-3-3-3-3-3-4-4-4-4-4-4-4-4-|
d-4-4-4-4-4-4-4-4-2-2-2-2-2-2-2-2-|
a---------------------------------|
E---------------------------------|#/4t2##/4t1#

1 - index
2 - middle
3 - ring
4 - pinky

http://*
Composição: Colaboração e revisão: