busca

Queen Of The Surface Streets

DeVotchka

Tom: D
Album: Una Volta

Intro
e-------------0----------------------0-----------|
b-------10------10----10-------10------10----10--|
g----11----11------11-------12----12------12-----|
d-12---------------------11----------------------|
a------------------------------------------------|
E------------------------------------------------|

e-------------0----------------------------------|
b-------10------10----10-10-10-10-10-10-10-10-10-|
g----11----11------11----12-12-12-12-12-12-12-12-|
d-12---------------------11-11-11-11-11-11-11-11-|
a------------------------------------------------|
E------------------------------------------------|

He just strums these chords for the rest of the song and plays them an octave lower for 
chorus.  I recommend playing them this way:

e-------------------------------------------------|
b-10-10-10-10-10-10-10-10-10-10-10-10-10-10-10-10-|
g-11-11-11-11-11-11-11-11-12-12-12-12-12-12-12-12-|
d-12-12-12-12-12-12-12-12-11-11-11-11-11-11-11-11-|
a-------------------------------------------------|
E-------------------------------------------------|

(fingers)
e---------------------------------|
b-1-1-1-1-1-1-1-1-1-1-1-1-1-1-1-1-|
g-3-3-3-3-3-3-3-3-4-4-4-4-4-4-4-4-|
d-4-4-4-4-4-4-4-4-2-2-2-2-2-2-2-2-|
a---------------------------------|
E---------------------------------|

1 - index
2 - middle
3 - ring
4 - pinky

http://*

Clipes

Cifra Club Pro

Aproveite o Cifra Club com benefícios exclusivos e sem anúncios
7 dias grátis
Cifra Club Pro
Aproveite o Cifra Club com benefícios exclusivos e sem anúncios
7 dias grátis