This Place Is Haunted

DeVotchka

Tom: G
"This Place is Haunted"
Tabbed by Mustafa Sayed
Email: HalfBloodMoose@*

Intro/Verse/Chorus:
Capo on 5th
*It helps to listen to the song for timing and picking
instead of looking at all those zeros and ones. Have Fun!

#1t1##1t2#e-------------0---------------------------0--------------|
b---1---1---1---1---1---1---1---1---1---1---1---1--------|
g-----0---0-------0---0-----------0---0-------0----------|
d-2-----------------------2---2-------------------2-0----|
a--------------------------------------------------------|
E--------------------------------------------------------|#/1t2##/1t1#

#2t1##2t2#e-------------0---------------------------0--------------|
b---0---0---0---0---0---0---0---0---0---0---0---0--------|
g-----0---0-------0---0-----------0---0-------0----------|
d-------------------------0-----------------------0------|
a-2---------------------------2--------------------------|
E--------------------------------------------------------|#/2t2##/2t1#
Composição: Colaboração e revisão: