You Love Me

DeVotchka

A
123
X02220
D
123
XX0232
E
123
022100
Tom: G
#1t1#
Intro/Verse:
  A                                 E
#1t2#e-------------------------------------------------------------------|
b---2-2-2---2-2-2----2-2-2---2-2-2----------------------------------|
g---2-2-2---2-2-2----2-2-2---2-2-2----1-1-1---1-1-1---1-1-1---1-1-1-|
d---2-2-2---2-2-2----2-2-2---2-2-2----2-2-2---2-2-2---2-2-2---2-2-2-|
a-0-0-0-0---0-0-0--0-0-0-0---0-0-0----2-2-2---2-2-2---2-2-2---2-2-2-|
E---------0----------------0--------0-0-0-0-0-0-0-0-0-0-0-0-0-0-0-0-|#/1t2##/1t1#

#2t1#Second Guitar:
#2t2#e--------------------------|
b--------------------------|
g--------------------------|
d--------------------------|
a-0-2-4---4-5-4------------|
E---------------7---5-4----|#/2t2##/2t1#

Chorus:
D E

http://*
Composição: Colaboração e revisão: