busca

You Love Me

DeVotchka

Tom: E
Intro/Verse:
  A                                 E
e-------------------------------------------------------------------|
b---2-2-2---2-2-2----2-2-2---2-2-2----------------------------------|
g---2-2-2---2-2-2----2-2-2---2-2-2----1-1-1---1-1-1---1-1-1---1-1-1-|
d---2-2-2---2-2-2----2-2-2---2-2-2----2-2-2---2-2-2---2-2-2---2-2-2-|
a-0-0-0-0---0-0-0--0-0-0-0---0-0-0----2-2-2---2-2-2---2-2-2---2-2-2-|
E---------0----------------0--------0-0-0-0-0-0-0-0-0-0-0-0-0-0-0-0-|

Second Guitar:
e--------------------------|
b--------------------------|
g--------------------------|
d--------------------------|
a-0-2-4---4-5-4------------|
E---------------7---5-4----|

Chorus:
D E

http://*

Clipes

Cifra Club Pro

Aproveite o Cifra Club com benefícios exclusivos e sem anúncios
7 dias grátis
Cifra Club Pro
Aproveite o Cifra Club com benefícios exclusivos e sem anúncios
7 dias grátis