busca

A Vida É Bela Pra Quem Sabe Amar

Diamba

Tom: E
[Intro]  C#m  A  B

E|--10/11-7------------------------------------------------------|
B|----------9-7-7h9----------------------------------------------|
G|--------------------9-6--8-8/9---------------------------4/1---|
D|--------------------------------9/6--4-2-4--2-1-----1-1/2------|
A|-----------------------------------------------2-2/4-----------|
E|---------------------------------------------------------------|

E|-10/11-7----------------|
B|---------9-7-7h9--------|
G|-------------------9-6--|

C#m
Lua, sol, mar e um sorriso, afinal
A                          B
Quando podemos rir de algo juntos é bom
C#m
Se amar alguém é um cargo fatal
A                       B
Eu quero ser somente a morada do amor

C#m
Saudades, eu sei vai pintar

Viver e poder te esperar
      A
É como um sonho bom
F#m            B
Poder realizar

C#m
Saudades, eu sei vai pintar

Viver e poder te esperar
      A
É como um sonho bom
F#m            B
Poder realizar
               
   A           B
Más, se eu errei
F#m
E um dia não pude lhe dar 
A     B
O amor
F#m
De alguma forma que você não podesse amar
A       B
Sonhos vão
F#m
Saudades, eu sei, vai pintar
A      B
E viver
B9
A vida é bela pra quem sabe amar

C#m
Viver que a vida é bela
Pra quem sabe amar
A                    B
Viver que a vida é bela
Eu sei

Clipes

Cifra Club Pro

Aproveite o Cifra Club com benefícios exclusivos e sem anúncios
Cifra Club Pro
Aproveite o Cifra Club com benefícios exclusivos e sem anúncios