busca

Infarto

Diego e Victor Hugo

Tom: Gm
[Intro] Eb  F  Gm7
        Eb  F

E|------------------------------------------|
B|-----8-6-8-6-8-6-8-6-8/10-8-10-8-10-8-10-8|
G|------------------------------------------|
D|-7/8--------------------------------------|
A|------------------------------------------|
E|------------------------------------------|

E|------------------------------------------|
B|-10/11-8-8/10-6-6/8-----------------------|
G|------------------------------------------|
D|------------------------------------------|
A|------------------------------------------|
E|------------------------------------------|

E|------------------------------------------|
B|--8-6-8-6-8-6-8-6-8/10-8-10-8-10-8-10-8---|
G|------------------------------------------|
D|------------------------------------------|
A|------------------------------------------|
E|------------------------------------------|

E|------------------------------------------|
B|-10/11------------------------------------|
G|------------------------------------------|
D|------------------------------------------|
A|------------------------------------------|
E|------------------------------------------|

[Primeira Parte]

      Bb
Ajuda eu aqui, me deu uma tonteira
                      F
Traz uma cadeira, que eu vou cair
                                    Gm7
Cancela a cerveja e traz água com açúcar aí
               Eb  F
Já me senti assim

[Pré-Refrão]

    Eb
Eu tenho uma doença
        F
Que tem um metro e sessenta
      Gm7
E acabou de entrar ali naquela porta
         Eb                         F
Fecha a conta, tá aumentando os sintomas

[Refrão]

               Bb
E o peito tá doendo
                   F
Tomara que seja infarto
                       Gm7
Se for amor, eu tô ferrado
                      Eb  F
Aí vai ser pior o estrago

               Bb
E o peito tá doendo
                   F
Tomara que seja infarto
                       Gm7
Se for amor, eu tô ferrado
                      Eb  F
Aí vai ser pior o estrago

[Solo] Eb  F  Gm7
       Eb  F

E|------------------------------------------|
B|-----8-6-8-6-8-6-8-6-8/10-8-10-8-10-8-10-8|
G|------------------------------------------|
D|-7/8--------------------------------------|
A|------------------------------------------|
E|------------------------------------------|

E|------------------------------------------|
B|-10/11-8-8/10-6-6/8-----------------------|
G|------------------------------------------|
D|------------------------------------------|
A|------------------------------------------|
E|------------------------------------------|

E|------------------------------------------|
B|--8-6-8-6-8-6-8-6-8/10-8-10-8-10-8-10-8---|
G|------------------------------------------|
D|------------------------------------------|
A|------------------------------------------|
E|------------------------------------------|

E|------------------------------------------|
B|-10/11------------------------------------|
G|------------------------------------------|
D|------------------------------------------|
A|------------------------------------------|
E|------------------------------------------|

[Primeira Parte]

      Bb
Ajuda eu aqui, me deu uma tonteira
                      F
Traz uma cadeira, que eu vou cair
                                    Gm7
Cancela a cerveja e traz água com açúcar aí
               Eb  F
Já me senti assim

[Pré-Refrão]

    Eb
Eu tenho uma doença
        F
Que tem um metro e sessenta
      Gm7
E acabou de entrar ali naquela porta
         Eb                         F
Fecha a conta, tá aumentando os sintomas

[Refrão]

               Bb
E o peito tá doendo
                   F
Tomara que seja infarto
                       Gm7
Se for amor, eu tô ferrado
                      Eb  F
Aí vai ser pior o estrago

               Bb
E o peito tá doendo
                   F
Tomara que seja infarto
                       Gm7
Se for amor, eu tô ferrado
                      Eb  F
Aí vai ser pior o estrago

[Final] Eb  F  Gm7

E|------------------------------------------|
B|--8-6-8-6-8-6-8-6-8/10-8-10-8-10-8-10-8---|
G|------------------------------------------|
D|------------------------------------------|
A|------------------------------------------|
E|------------------------------------------|

E|------------------------------------------|
B|-10/11------------------------------------|
G|------------------------------------------|
D|------------------------------------------|
A|------------------------------------------|
E|------------------------------------------|

Clipes

Cifra Club Pro

Aproveite o Cifra Club com benefícios exclusivos e sem anúncios
7 dias grátis
Cifra Club Pro
Aproveite o Cifra Club com benefícios exclusivos e sem anúncios
7 dias grátis