Expresso Love

Dire Straits

Dm
123
XX0231
Tom: G
Dm
^=bend
~= vibrato
rb= reverse bend
br=brush(with fingers)
/=slide
p=pull-off
h=hammer-on
R=Repetição

#1t1##1t2#E|---------------------------------------------------------------------------|
B|------------------------------5--6---5h6p5---------------------------------|
G|---------------5-7----5-7---------------------7---5---7---------------6-5--|
D|-------5/7-----5-7--------------------------------------------5---7--------|
A|-------5/7-----------------------------------------------------------------|
E|---------------------------------------------------------------------------|#/1t2##/1t1#

#2t1##2t2#E|---------------------------------------------------------------------------|
B|---8-8-8br--R----8--8--8--8------------13^-rb--13---------------------|
G|---9-9-9br--R----10-9--10-9------------12^-rb--12-----9-10-----9-10---|
D|---------------------------------------10------------------------12--------|
A|---------------------------------------------------------------------------|
E|---------------------------------------------------------------------------|#/2t2##/2t1#

#3t1##3t2#E|---------------------------------------------------------------------------|
B|--------------13-13-------13------13---------------13--13------------------|
G|--12-10---12^---------12^----12^~-12---10--12--10--12^-12--10--12--10h12---|
D|---------------------------------------------------------------------------|
A|---------------------------------------------------------------------------|
E|---------------------------------------------------------------------------|#/3t2##/3t1#

#4t1##4t2#E|-------------------------13---10--10--10----13p10-----10--13p10------------|
B|---------10-11--11-----13^---13^-13^-13^-----------10-----------10---------|
G|--10h12--------------------------------------------------------------------|
D|---------------------------------------------------------------------------|
A|---------------------------------------------------------------------------|
E|---------------------------------------------------------------------------|#/4t2##/4t1#

#5t1##5t2#E|--13-12-------------13^-13-----10----10---13p10----10--13p10---12---10-----|
B|--------13------------------10-----13^----------10----------10----13-------|
G|-----------12~-------------------------------------------------------------|
D|---------------------------------------------------------------------------|
A|---------------------------------------------------------------------------|
E|---------------------------------------------------------------------------|#/5t2##/5t1#

#6t1##6t2#E|----------------------------------------------------------------------|
B|---13^rb^----10-11--13---11---10h11p10---13^rb------------------------|
G|-----------------------------------------------------Fim-------------|
D|----------------------------------------------------------------------|
A|----------------------------------------------------------------------|
E|----------------------------------------------------------------------|#/6t2##/6t1#
Composição: Colaboração e revisão: anderson higo