Going Home

Dire Straits

A
123
X02220
A#°
123
X12020
A/G
1234
3X222X
A13
1234
5X465X
Asus4
123
X02230
Bm
234
X24432
Bm/F#
1234
XX4432
D
123
XX0232
D/F#
1234
2X0232
Em
12
022000
Em7/G
1234
3X243X
F#m
34
244222
F#m/A
1234
X04222
F#m7
1234
2X222X
G
123
320003
G#m7/5-
1234
4X443X
G#°
1234
4X343X
G/B
123
X20033
Tom: G
No notations tricks : a ">" means the note following should have no 
attack (i.e. slide it, hammer it, pull it, whatever!). 
 
#1t1##1t2#------------------------|-----------|---------------------|--------- 
----7--------7--5--7----|------5>7--|--10--10-------8--7--|--------- 
----7-----7-------------|----7------|------7---7-7--7-----|--------- 
--7----7--------------7-|--7--------|---------------------|--------- 
------------------------|-----------|---------------------|--------- 
------------------------|-----------|---------------------|--------- #/1t2##/1t1#
1'30" 
 
#2t1##2t2#---5--------4-5--------5--------5----|-------4-5-|-------4-5-7>5-4-2-| 
---7-----7----------7--------7-------|----7------|----7--------------| 
------6----------6--------6--------6-|-6---------|-6-----------------| 
-------------------------------------|-----------|-------------------| 
-------------------------------------|-----------|-------------------| 
-------------------------------------|-----------|-------------------| #/2t2##/2t1#
 
#3t1##3t2#---------------------|----------|----------------------|- 
---8-----7-----8-----|-----7-8--|--------7-8--10>8-7>5-|- 
------7-----7--------|--9-------|-----9----------------|- 
------------------9--|--9-------|--9-------------------|- 
---------------------|----------|----------------------|- 
---------------------|----------|----------------------|- #/3t2##/3t1#
 
#4t1##4t2#----------------------------|--------------------------------|------ 
--7--------7-----------7----|-----7--7--------7>8--10>8-7>5--|------ 
--7-----7-----9-----9-------|---7----7---7>9-----------------|-(audience 
-----7-----------7--------7-|-7------------------------------|--laughs) 
----------------------------|--------------------------------|------ 
----------------------------|--------------------------------|------ #/4t2##/4t1#
 
#5t1##5t2#--------------------|-----------------------------------|- 
---8-----7-----8----|----8---7--------7-----------7-----|- 
------7-----7-------|-9------7-----7-----9-----9--------|- 
------------------9-|-7------7--7-----------7--------7--|- 
--------------------|-----------------------------------|- 
--------------------|-----------------------------------|- #/5t2##/5t1#
2'30" 
 
#6t1##6t2#-----------------------------------------------|-------------------| 
-------7--7-----------7--------7-8---10>8-7>5--|--5-----3-----3----| 
----7-----7-----9-----------9------------------|-----4-----4-------| 
-7--7--------7-----7-----7---------------------|-----------------4-| 
-----------------------------------------------|-------------------| 
-----------------------------------------------|-------------------| #/6t2##/6t1#
 
#7t1##7t2#------------------------|-------|------------------------------------| 
-------3--3----3-2-3----|-------|------------------------------------| 
----4-----4--4----------|--6--7-|----6-7--6--6>7>6>4---2>11-11-11>14-| 
-4--------------------5-|-------|-9----------------------------------| 
------------------------|-------|------------------------------------| 
------------------------|-------|------------------------------------| #/7t2##/7t1#
 
#8t1##8t2#-----------------------|---------|-----------------|- 
---------12--12>14>12--|--10--7--|--------7--------|- 
-11--14----------------|---------|-----7-----9--7--|- 
-----------------------|---------|--7--------------|- 
-----------------------|---------|-----------------|- 
-----------------------|---------|-----------------|- #/8t2##/8t1#
 
#9t1##9t2#-----------------------------|--------------------------------- 
--------7>12--7--------------|--10--12--10>12>10-10--8>10>8-8-- 
-9>7>9-----------10--9--7--9-|--11----------------------------- 
-----------------------------|--------------------------------- 
-----------------------------|--------------------------------- 
-----------------------------|--------------------------------- #/9t2##/9t1#
 
#10t1##10t2#------------------|--10-----------------|-------------------|- 
--7>8>7-7--5>7>5--|------12-10-12-10-7--|--7-7--------------|- 
------------------|---------------------|--7-7--7-9-7>11--7-|- 
------------------|---------------------|-----------------7-|- 
------------------|---------------------|-------------------|- 
------------------|---------------------|-------------------|- #/10t2##/10t1#
 
#11t1##11t2#-------------------------------|-------------------7-----------|- 
--10--12--14>12----------------|----------------7-----10--7----|- 
--9---11--11------12>11--11>9--|-------------7---------------7-|- 
-------------------------------|----------7--------------------|- 
-------------------------------|--10>9>7-----------------------|- 
-------------------------------|-------------------------------|- #/11t2##/11t1#
 
#12t1##12t2#-------------------------------|-----------------------|- 
----------------7--------------|-----------------------|- 
-------------7-----7>6>7-------|-----------------------|- 
-------7--9---------------7>11-|--2>11--11--11--14--14-|- 
-9-10--------------------------|-----------------------|- 
-------------------------------|-----------------------|- #/12t2##/12t1#
 
#13t1##13t2#--------------------------|---------------------------|- 
---------12--14>12--------|--7-----7--10--------------|- 
-11--14-------------14-11-|-----9---------9--9--9>7>9-|- 
--------------------------|---------------------------|- 
--------------------------|---------------------------|- 
--------------------------|---------------------------|- #/13t2##/13t1#
 
#14t1##14t2#---------------------------|--------------------|- 
----------7----------------|--------7-7-7-10-10-|- 
----7--9-----7-------------|-6-7-9--------------|- 
-7--------------7-9--9>7>9-|--------------------|- 
---------------------------|--------------------|- 
---------------------------|--------------------|- #/14t2##/14t1#
 
#15t1##15t2#-----------10-9-7-7>9>7-------|----------------------|- 
-----7-10----------------10-7-|----7--10-------------|- 
-7>9--------------------------|-9---------9-9--9>7>9-|- 
------------------------------|----------------------|- 
------------------------------|----------------------|- 
------------------------------|----------------------|- #/15t2##/15t1#
 
#16t1##16t2#----------------------------------| 
---------7------------7-----------| 
----7-9-----7------7-----9--7>9>7-| 
-7------------7-9-----------------| 
----------------------------------| 
----------------------------------| #/16t2##/16t1#
 
#17t1##17t2#------------10-10-10-10-9------7------------------------------------| 
------7-10----------------10-7---10-8-10--8>7>8--10-8-7---------7---| 
-7>9----------------------------------------------------7-----7---9-| 
----------------------------------------------------------7-9-------| 
--------------------------------------------------------------------| 
--------------------------------------------------------------------| #/17t2##/17t1#
 
#18t1##18t2#-14-12-10-9--------7---------------------------------------| 
-------------10-7-----10-8-10---8-7-8--10-8-7-----------7--| 
----------------------------------------------7-----7---7--| 
------------------------------------------------7-9-----9--| 
-----------------------------------------------------------| 
-----------------------------------------------------------| #/18t2##/18t1#
                                                        Bm 
 
#19t1##19t2#---------------------------------|----------------------|- 
----------------10---------------|-10--8>7--8>7--5>7----|- 
------11>9>11-------12>11--9--11-|----------------------|- 
---------------------------------|--------------------7-|- 
--12-----------------------------|----------------------|- 
---------------------------------|----------------------|- #/19t2##/19t1#
 
#20t1##20t2#-----------------------------------|-------------------------3--|- 
-----------------------------------|--7--------------7--10---0--|- 
--7--9--7--6>7>9-7-6-7-9-7--7>6>7--|-----7--------7----------0--|- 
-----------------------------------|--------7--9-------------0--|- 
-----------------------------------|-------------------------2--|- 
-----------------------------------|-------------------------3--|- #/20t2##/20t1#
 
#21t1#                                                             G 
#21t2#---------------2--| 
---------------3--| 
--7--6--4--2---2--| 
---------------0--| 
------------------| 
------------------| #/21t2##/21t1#
               D 
 
Intro: 
 
Tempo livre
D 
F#m 
G/B  Em 
D  A13  
G/B  D  A13 
G#m7/5-  Em7/G 
Bm/F#  Bm
 
Quartas
D/F#  G#m7/5- 
Em7/G  Bm/F# 
D  G#m7/5-
Em7/G  Bm/F#  
D  G#m7/5-  
Em7/G  Bm/F#  
 
Quartas 
D  Bm  D/F#  G  D 
D  A  G  D/F# 
G  Em  G  A  D  Bm D/F# 
G  D   D  A 
G  D/F#  G  A  D 
Bm  F#m/A  G F#m7  Em  F#m7  G  G#°  A  A#°  
Bm  F#m  G F#m7  Em  F#m7 
G  Asus4   A 
 
Final: 
 
D  BmD/F#  G  D 
D  A  A/G  D/F#  G 
A  G  Em  D  D
Composição: Djam Karet / Mark KnopflerColaboração e revisão: Felipe Mardegan