Lady Writer

Dire Straits

A
123
X02220
Abm
34
466444
Am
123
X02210
B
234
X24442
C#m
234
X46654
E
123
022100
F#m
34
244222
Tom: G
#1t1#(intro)
        A   B      C#m  B  A         A            B          C#m
#1t2#E|----------------------------------------7-------------------------|
B|------7--4--4h5--4--5--4h5p4-----7b(9)-----(9)b7--5--7------5-----|
G|--4/6--------------------------6-------------------------6-----6--|
D|------------------------------------------------------------------|
A|------------------------------------------------------------------|
E|------------------------------------------------------------------|#/1t2##/1t1#

#2t1#            A        B          C#m  B  A             B     Abm
#2t2#E|----------------------7-------------------------------------------|
B|---------7--5--7b(9)-----(9)b7--5------------5p4------------------|
G|--4-5-6----------------------------6-6--4h6-------6-4-------4-6/8-|
D|-------------------------------------------------------6-6--------|
A|------------------------------------------------------------------|
E|------------------------------------------------------------------|#/2t2##/2t1#

A     B            C#m  B  A
Lady writer on the TV
A              B      C#m  B  A
Talk about the Virgin Mary
A     B        C#m  B  A
Reminded me of you
A           B            Abm
Expectation left to come up to Yeah

A    B             C#m  B  A
Lady writer on the TV
A    B          C#m  B  A
She had another quality
A       B           C#m  B  A
The way you used to look
A     B              Abm           A
And I know you never read a book

A                                            E      A
Just away that her hair fell down around her face

#3t1#Riff 1
#3t2#E|-12--12p11-9------------------------------------------------------------|
B|--------------9--12------9----------------------------------------------|
G|---------------------11-----9--11------9--------------------------------|
D|-----------------------------------11-----9--11------9--------9--9h11~--|
A|-------------------------------------------------11-----9--11-----------|
E|------------------------------------------------------------------------|#/3t2##/3t1#

A                         C#m     Abm   F#m
And I recall my fall from grace

#4t1#Riff 2
#4t2#E|----------------------------------------------------|
B|-12b14r12----12p9h12p9h12p9-------------------------|
G|-----------------------------11b13r11-9--9h11-------|
D|-----------------------------------------------11~--|
A|----------------------------------------------------|
E|----------------------------------------------------|#/4t2##/4t1#

        Am            C#m
Another time, another place

#5t1#Riff 3
#5t2#E|-------------------------------|
B|-------------------------------|
G|--------------9-x-9-x-9--------|
D|-------11-----------------11~--|
A|--/11------11------------------|
E|-------------------------------|#/5t2##/5t1#

A    B             C#m  B  A
Lady writer on the TV
    A           B              C#m  B  A
She had all the brains and the beauty
A      B              C#m  B  A
The pictures does not fit
A      B                  Abm            A
You’d talk to me when you felt like it

A                                            E      A
Just away that her hair fell down around her face
A                         C#m     Abm   F#m
And I recall my fall from grace
        Am            C#m
Another time, another place

E                           B
Yes and your rich old man,
B                                 B  A  Abm
You know he’d a call her a dead ringer
Abm
You got the same command
                 F#m
Plus your mother was a Jazz singer

(solo) A B C#m  B  A (3x)
       A B Abm  (2x)

A                                            E      A
Just away that her hair fell down around her face
A                         C#m     Abm   F#m
And I recall my fall from grace
        Am            C#m
Another time, another place

A    B             C#m  B  A
Lady writer on the TV
A            B          C#m  B  A
She knew all about a history
A            B                C#m  B  A
He couldn’t hardly write your name
A          B                Abm
I think, I want it just the same as the...

A    B             C#m  B  A
Lady writer on the TV
A                 B      C#m  B  A
Talking about the Virgin Mary
    A        B                     C#m  B  A
You know I’m talking about you and me
A             B            C#m
And the lady writer on the TV

A    B             C#m  B  A
Lady writer on the TV
A                 B      C#m  B  A
Talking about the Virgin Mary
         A        B                     C#m  B   A
Yeah you know I’m talking about you and me
A             B            C#m
And the lady writer on the TV
Composição: Colaboração e revisão: Anderson CarvalhoGustavo SantosFelipe AnchietaFlávio Henriques