busca

Local Hero (Wild Theme)

Dire Straits

Tom: D
E|-----|--2-----2--0------2--|----------------0--|--2-----------5----|
B|-----|--3---3---------3----|--------3-----3----|--------3----------|
G|--2--|--2-2---------2------|--2---2---2--------|------2-----2---2--|
D|-----|--4------------------|----4-------4------|----4-----4--------|
A|-----|---------------------|-------------------|-------------------|
E|-----|---------------------|-------------------|-------------------|


E|--5-------3-2--|--5-----5-4-----5--|----------------4--|
B|--3---3--------|--7---7-------7----|--7-----7-----7----|
G|--2-2---2------|--6-6-------6------|------6---6-6------|
D|---------------|-------------------|----4--------------|
A|---------------|-------------------|-------------------|
E|---------------|-------------------|-------------------|


E|--5-----5-----4--|--5-7-5-4-------|--3-------2-----3--|
B|------7-----7----|-------------7--|------3-------3----|
G|----6-----6------|-----------6----|------------0------|
D|-----------------|----------------|----0---0----------|
A|-----------------|----------------|--2----------------|
E|-----------------|----------------|-------------------|


E|------0-2--|--3-----3---0-2--|--3-----5-3-2----|
B|--0-0------|------0---0------|----0-0-------5--|
G|-----------|----0------------|-----------------|
D|-----------|-----------------|-----------------|
A|-----------|-----------------|-----------------|
E|-----------|-----------------|-----------------|


E|---------------------|-------------------|----------0--------|
B|--5/7-----7-5-----7--|--------------7----|--7-----7-------7--|
G|--5/7---7-------7----|--------7-7-----7--|--6---6-------6----|
D|--5/7-7-------7------|--7---7-----7------|--5-5-------5------|
A|--0------------------|----9--------------|--0----------------|
E|---------------------|-------------------|-------------------|


E|----------------|--3-------2-----3--|--------0-3--|---------------------|
B|--8-10-8-7/5-5--|------3-------3----|--0---0------|--3/7-----7-5-----7--|
G|----------------|-------------------|----0--------|--------7-------7----|
D|----------------|----0---0---0------|-------------|------7-------7------|
A|----------------|--2----------------|-------------|---------------------|
E|----------------|-------------------|-------------|---------------------|


E|---------------------|-------------------|------------------|
B|----------------7----|--7-----7-5-----7--|--8-10-8-7-5---0--|
G|--7-------6/7--------|--6---6-------6----|-------------0----|
D|----7---7-----7---7--|--5-5-------5------|------------------|
A|------0--------------|-------------------|------------------|
E|---------------------|-------------------|------------------|


E|-------------------|-------------------|---------------|-------------|
B|--3-------2-----3--|--------------3----|--3-----3-2-3--|--------3----|
G|------4-------4----|----------4--------|------4--------|----------4--|
D|----4---4---4------|--4---4-----4------|----2----------|--2---2------|
A|-------------------|----5---5-------5--|---------------|-------------|
E|--4----------------|-------------------|--3------------|----3--------|


E|-------------------|-----------------|---------------------|-------------|
B|--3-------2-----3--|--------------2--|--3-------2-----2-3--|--2----------|
G|------4-------4----|------4---4------|------4-------4------|------4---2//|
D|----4---4---4------|--4-4---4---4----|----4---4---4--------|----4---4----|
A|-------------------|-----------------|--2------------------|-------------|
E|--2----------------|-----------------|---------------------|-------------|


E|-------------------|-----------|---------------------|------|
B|------------10-10--|-------10//|--12-14-12-13-12-10--|------|
G|--/11-11-11--------|--7/11-----|---------------------|--11--|
D|-------------------|-----------|---------------------|------|
A|-------------------|-----------|---------------------|------|
E|-------------------|-----------|---------------------|------|


E|--------------|------------|------------|-----------|
B|--------------|------------|--10--------|--5-7------|
G|--11-9-11-11--|--11-9-7-9--|-------7-9--|----7-7----|
D|--------------|------------|-----7------|--------7--|
A|--------------|------------|------------|-----------|
E|--------------|------------|------------|-----------|


E|-----------|--------------|------------------|-------------10-9--|
B|-----------|--------------|-----------10-10--|--------7-10-------|
G|-----------|--6-7/9-9/11--|--11-11-11--------|----7-9------------|
D|--9-9-7-9--|--------------|------------------|--7----------------|
A|-----------|--------------|------------------|-------------------|
E|-----------|--------------|------------------|-------------------|


E|--7-9-7-9-7-----|---------|-------------|-----------------|
B|------------10--|---------|-------7-10--|-------------10--|
G|----------------|--7-9BB--|--7-9B-------|--9/11-9-7-9-----|
D|----------------|---------|-------------|-----------------|
A|----------------|---------|-------------|-----------------|
E|----------------|---------|-------------|-----------------|


E|-----------|---------------|-------|-----------|
B|-----------|--7---------7--|-------|--------7--|
G|--9---7-9--|----7-----7----|--9-0--|--7-7-9----|
D|----7------|------7-9------|-------|-----------|
A|-----------|---------------|-------|-----------|
E|-----------|---------------|-------|-----------|


E|--10-10-10-9-----------|----------------------------|-----------------------|
B|-------------10----10--|--10/12------12-10-----8-7--|--8-8/10-8-10-8-7------|
G|----------------11-----|--------11/9-------9/7------|------------------7----|
D|-----------------------|----------------------------|--------------------7--|
A|-----------------------|----------------------------|-----------------------|
E|-----------------------|----------------------------|-----------------------|


E|-----------|--12BB-10-9-10-9-----|--10-12-10-----------------------|
B|------7----|-----------------10--|--10----10-12-10-------10--------|
G|----7---9--|---------------------|-----------------12-11----12-11--|
D|--9--------|---------------------|---------------------------------|
A|-----------|---------------------|---------------------------------|
E|-----------|---------------------|---------------------------------|


E|-------------------|---------|---------|--2-----2-5-5--|-----------|---------------------|
B|-----10------------|---------|---------|------3--------|-------10//|--12-14-12-14-12-10--|
G|--12----12-11/7----|---------|----2----|----2----------|--9/11-----|---------------------|
D|----------------7--|--7/9-7--|--7---4--|---------------|-----------|---------------------|
A|-------------------|---------|---------|---------------|-----------|---------------------|
E|-------------------|---------|---------|---------------|-----------|---------------------|


E|------|-----------------|----------------|
B|------|--------10-------|---------7-8----|
G|--11--|----7-9-7--9B-7--|--9B-9-7-----9--|
D|------|--7--------------|----------------|
A|------|-----------------|----------------|
E|------|-----------------|----------------|


E|-------|-----------------|-----------------|
B|----8--|--7-----7-8------|--7-8------------|
G|-------|----7-------7----|------9-7-9-7/6--|
D|--7----|------7-------9--|-----------------|
A|-------|-----------------|-----------------|
E|-------|-----------------|-----------------|


E|---------------|--12B-12-10-9-----|---------|------|
B|--7---7-10-10--|--------------12--|--10-12--|--10--|
G|----9----------|------------------|---------|------|
D|---------------|------------------|---------|------|
A|---------------|------------------|---------|------|
E|---------------|------------------|---------|------|


E|---------------------|-------------------|---------|
B|--10/12-12-12-12-12--|-------------------|---------|
G|---9/11-11-11-11-11--|--11/9-9-9/11/9-9--|----7-9--|
D|---------------------|-------------------|--7------|
A|---------------------|-------------------|---------|
E|---------------------|-------------------|---------|


E|---------------|-------|-----|---------|
B|--7---------7--|-------|-----|------5--|
G|--7-7-----7----|--9-7--|-----|----7----|
D|------7-9------|----5--|--4--|--7------|
A|---------------|-------|-----|---------|
E|---------------|-------|-----|---------|


E|-----------------------|------5----|---------------||
B|--5/7-------3-5/7-5-7--|--5-----3--|------------3--||
G|------7-6-4------------|--------2--|----------2----||
D|-----------------------|--------5--|--0-2-3-4------||
A|-----------------------|----4------|---------------||
E|-----------------------|-----------|---------------||



Key
BB bend full twice
B  bend full once
/  slide

Clipes

Cifra Club Pro

Aproveite o Cifra Club com benefícios exclusivos e sem anúncios
7 dias grátis
Cifra Club Pro
Aproveite o Cifra Club com benefícios exclusivos e sem anúncios
7 dias grátis