busca

Money For Nothing Intro Only Intro

Dire Straits

Tom: A#
Money For Nothing (intro)
Transcribed by Bryan McLellan


+-------------------------------------+
|----------6--------------------------|
|--7-7-5-7-5-7-5-3-0---0-0-3---3---5--|
|--5-5-5-5---5-5-3-0---0-0-3---3h5-5--|
|-------------------------------------|
+-------------------------------------+

+-------------------------------------------+
|--3-3-1h3-3-3-1h3-1-1-1---3-----3-1-1-1----|
|--0-0-0---0-0-0---0-3-0-0-3h5-5-0-0-3-0----|
|------------------------0-----5------------|
|-------------------------------------------|
+-------------------------------------------+

Clipes

Cifra Club Pro

Aproveite o Cifra Club com benefícios exclusivos e sem anúncios
Cifra Club Pro
Aproveite o Cifra Club com benefícios exclusivos e sem anúncios