busca

Money For Nothing Intro

Dire Straits

Tom: F
E|----------------------------|
B|-----------------6----------|
G|--7-----7--5--7--5----------|
D|--5-----5--5--5-------------|
A|----------------------------|
E|----------------------------|

E|------------------------------------------|
B|------------------------------------------|
G|--7-----5-----5-----3-----------0-----0---|
D|--5-----5-----5-----3-----0-----0-----0---|
A|------------------------------------------|
E|------------------------------------------|

E|-----------------------------------------|
B|-----------------------------------------|
G|--0--------0-----3-----------------------|
D|--0--------0-----3-----0-----0-----3/5---|
A|-----------------------------------1/3---|
E|-----------------------------------------|

E|---------------------------------|
B|---------------------------------|
G|------------3-----0----------7---|
D|--5----5----3-----0-----5--------|
A|--3----3-------------------------|
E|---------------------------------|

E|---------------------------------|
B|--------------------8-------8----|
G|--7-----5-----7-----5h7-----7----|
D|--5-----5-----5------------------|
A|---------------------------------|
E|---------------------------------|

E|---------------------------------|
B|---------------------------------|
G|--5-----7-----5-----3-----0------|
D|--5-----5-----5-----3-----0------|
A|---------------------------------|
E|---------------------------------|

E|------------------------------------||
B|------------------------------------||
G|--0--0--3b4p0---0-------------------||
D|--0--0--0-------0--3s----5L---5--5--||
A|-------------------3s----5L---5--5--||
E|------------------------------------||

Clipes