C
123
X32010
D
123
XX0232
Em
12
022000
G
123
320003
Tom: G
#1t1#Em  D   C   D C 
#1t2# ------------------- 
-8---7---5---7-5--- 
-9---7---5---7-5--- 
-9---7---5---7-5--- 
------------------- 
------------------- #/1t2##/1t1#
 
#2t1#Lead guitar: 
#2t2#----------- #/2t2##/2t1#
 
#3t1##3t2#|---|---------------------------------------| 
|---|-8---10-8-7-7(8)-7-------7~~~7(9)------| 
|---|---------------------9--------------10-| 
|---|---------------------------------------| 
|---|---------------------------------------| 
|---|---------------------------------------| #/3t2##/3t1#
 
Em               D                  C          D 
He sticks to his guns, he takes the road as it comes 
             C 
He takes the shine off his shoes 
Em             D                  C        D 
He says it's a shame, you know it may be a game 
         C 
Ah but I won't play to lose     -----------8-7------------------- 
#4t1##4t2#                                ---------------10-8-------------- 
                                -9---7/9-------------------7-9-7- 
                                ------------------------10------- 
                                --------------------------------- 
                                --------------------------------- #/4t2##/4t1#
 
He's burning the grass, he takes up a glass 
 
#5t1#He swallows it neat     --------------------------------- 
#5t2#                        --------------------------------- 
                        -9(10)~~~9---7(9)7-7(9)7-7(9)~~~- 
                        --------------------------------- 
                        --------------------------------- 
                        --------------------------------- #/5t2##/5t1#
 
He crosses the floor, he opens the door 
 
He takes a sniff at the street 
 
CHORUS 

#6t1# C D   C D                 C D   C D   D G   D 
#6t2#---------------------------------------------10--- 
-5-7---5-7---8-8-7---------5-7---5-7---7-8---10--- 
-5-7---5-7---------9-7-9---5-7---5-7---7-7---11--- 
-5-7---5-7-----------------5-7---5-7---7-9---12--- 
-------------------------------------------------- 
-------------------------------------------------- #/6t2##/6t1#
 
But he climbs on his horse, you know he feels no remorse 
 
#7t1#He just kicks it alive  ------------------------------------------ 
#7t2#                        ------------------------------------------ 
                        --------------------7(9)------7------7(9)- 
                        ------10---7^10^7----------10---10-7------ 
                        -7/10------------------------------------- 
                        ------------------------------------------ #/7t2##/7t1#
 
His motor is fine, He takes it over the line 
 
#8t1#Until he's ready to dive        ---------------------- 
#8t2#                                ----------------6-5--- 
                                -------5---7-5------5- 
                                ---5-7---7-----7------ 
                                -7-------------------- 
                                ---------------------- #/8t2##/8t1#
SOLO : 
 
#9t1##9t2#------------------------------------------15-12---------- 
--------12-15-12-15(17)---12-15-12-15(17)-------13(15)--- 
-14(16)-------------------------------------------------- 
--------------------------------------------------------- 
--------------------------------------------------------- 
--------------------------------------------------------- #/9t2##/9t1#
 
#10t1##10t2#-----------------------------------------12-12-12-12-12-12---17-17-15- 
----12-13-15-12^13^12----12------------------------------------------- 
-14-------------------14----14-12------------------------------------- 
----------------------------------14---------------------------------- 
---------------------------------------------------------------------- 
---------------------------------------------------------------------- #/10t2##/10t1#
 
#11t1##11t2#-12^15^12--------------17-19-17-------------------------------------------- 
------------15-------17---------20---17^20^17---10^20^17------17-20-20(22)- 
-------------------17--------------------------------------19-------------- 
--------------------------------------------------------------------------- 
--------------------------------------------------------------------------- 
--------------------------------------------------------------------------- #/11t2##/11t1#
 
#12t1#                                     C D   C D                C D   C D   D G   D 
#12t2#-----------------------------------------------8--------------------------------- 
-20(22)-20-17-20-17------17---19(20)-19--------------10(12)~~~------------------- 
----------------------19--------------------------------------------------------- 
--------------------------------------------------------------------------------- 
--------------------------------------------------------------------------------- 
--------------------------------------------------------------------------------- #/12t2##/12t1#
 
#13t1#He sticks to his guns, he takes the road as it comes 
#13t2#-15--------------17------------15---14--------------- 
----------------------------------------------------- 
----------------------------------------------------- 
----------------------------------------------------- 
----------------------------------------------------- 
----------------------------------------------------- #/13t2##/13t1#
 
#14t1#He takes the shine off his shoes 
#14t2#------------------------------------------------------------ 
-13------------------------------------------------------12- 
------------------------------------------12-14-12-14-12---- 
----------------------------------7/10/12------------------- 
------------------------------------------------------------ 
------------------------------------------------------------ #/14t2##/14t1#
 
#15t1#He says it's a shame            you know it may be a game 
#15t2#-------------------------------------------------------------------- 
-------------------------------------------------------------------- 
---------------------14-12-11-----------------------------11(12)~~~- 
------------------------------14------------------------------------ 
-------------------------------------------------------------------- 
-------------------------------------------------------------------- #/15t2##/15t1#
 
#16t1#Ah but I won't play it to lose 
#16t2#------------------------------------------------------ 
------------------------------------------------------ 
---------------------------------------12------------- 
--------------------------------12(14)----14-14-14-14- 
------------------------------------------------------ 
------------------------------------------------------ #/16t2##/16t1#
 
#17t1#He sticks to his guns, he takes the road as it comes 
#17t2#-------------------------------------------------------- 
-----------------------------------------------------12- 
-12--------------14------------------------------------- 
------------------------------------14------------------ 
-------------------------------------------------------- 
-------------------------------------------------------- #/17t2##/17t1#
 
#18t1#He takes the shine off his shoes 
#18t2#------------------------------------------------------------------- 
------------------------------------------------------------------- 
------------------------------------------------------------------- 
-------------------------------------14-12(14)---14-14-14-14-12---- 
----------------------------------15----------------------------15- 
------------------------------------------------------------------- #/18t2##/18t1#
 
#19t1##19t2#-------------------------------------------------- 
-----------------15-13---------------------------- 
----12-----------------14---12-14-12-14-12-14(16)- 
-14----14-12---14--------------------------------- 
-------------------------------------------------- 
-------------------------------------------------- #/19t2##/19t1#
 
#20t1#He's too fast to stop,     he takes it over the top 
#20t2#---------------------------------------------------------- 
---------------------------------------------------------- 
-14(16)-14-12-14-12---11---------------------------------- 
---------------------------------------------------------- 
---------------------------------------------------------- 
---------------------------------------------------------- #/20t2##/20t1#
 
He makes a line in the news... 
 
#21t1##21t2#-------------------------------------------- 
-------------------------------------------- 
-------------------------------------------- 
--------5/7-------------------5/7----------- 
--------5/7-------------------5/7----------- 
-------------------------------------------- #/21t2##/21t1#
 
G  Bm  C  Bm  Am  C  for the verse 
 
and C- D  C- D  Em9  (x2) for the chorus...
Composição: Colaboração e revisão: Felipe Mardegan