Private investigations

Dire Straits

Tom: G
Intro arpeggios (not included in the "Money for Nothing" best-of version) :

#1t1##1t2#-------5-7-5-7--|-----------------------
-----5----------|-----------------------
---5------------|----------9-12-9-------
-7--------------|--------9--------12-9--
----------------|-----10----------------
----------------|-----------------------#/1t2##/1t1#


#2t1#Intro solo:
#2t2#-------------|---------|------|---------------------|---------|----------------
---8---------|---------|------|-------8>12--8>10-10-|-10>8>10-|-10>12--8-------
-----9>11-11-|-11-9-11-|-12-9-|----7----------------|---------|----------------
-9-----------|---------|------|---------------------|---------|----------------
-------------|---------|------|---------------------|---------|----------------
-------------|---------|------|---------------------|---------|----------------#/2t2##/2t1#

#3t1##3t2#---------------------------|--------------
------------8-7--5>10------|----7-7-8-----
---------7-------------9-9-|----7------9--
-------7-------------------|--------------
----9----------------------|--------------
-7-------------------------|--------------#/3t2##/3t1#

#4t1#1st verse :
#4t2#-------------------7------|------------7-|-------------------------|---
-----------------8---8-7--|----------7---|------------10-----10----|---
--------------------------|--------------|------(9-9)----9-9----9--|---
--------------------------|--------------|-------------------------|---
--------------------------|--------------|-------------------------|---
--------------------------|--------------|-------------------------|---#/4t2##/4t1#

...mystery to me        ...commences    ...fee

#5t1##5t2#-----------------|-----------------|------------------|---
-------8-----8---|-------6-----6---|--6-5-4------4----|---
-(7-7)---7-7---7-|-(5-5)---5-5---5-|---------4-4---4--|---
-----------------|-----------------|------------------|---
-----------------|-----------------|------------------|---
-----------------|-----------------|------------------|---#/5t2##/5t1#

...expenses

#6t1##6t2#----------|----------------|------------------5--|-----------------------|---
----------|-------------8--|------------8---8----|-----------------------|---
--12-11-9-|-----6----------|------7-------7------|-----------------------|---
--14------|---9---9---9----|----5---5------------|--7-9-7-9--7-5-5-7-5---|---
----------|-9-------9------|--7-------7----------|--7------------------7-|---
----------|----------------|---------------------|-----------------------|---
                                                (*)#/6t2##/6t1#
...inquiry

#7t1##7t2#-------------|
-------------|
-------------|
-----5-------|
-5-7---5-7---|
-------------|#/7t2##/7t1#

2nd verse is quite much like the 1st one, give or take a few
variations:

#8t1##8t2#------------7--|------------------------|------------|-
----------7----|--------------8---8-7-6-|-------6----|-
---------------|------------7---7-------|-(5-5)---5--|- (goes on same as
---------------|------------------------|------------|-   1st verse)
---------------|------------------------|------------|-
---------------|------------------------|------------|-#/8t2##/8t1#
        (repeat)                        
...reports      ...treason      

#9t1##9t2#--------------------------|-----------------------|-
--------10-------------8--|-----------------------|-
---------------7-9---7----|-----------4---4-------|-
-----------9-9-----9------|---------7---7---7-5---|-
--------------------------|---------------------7-|-
--------------------------|-----------------------|-#/9t2##/9t1#

...reason               The "phrase" marked (*) above is also a bit
                        shortened.


Last verse (or is it a bridge ? Who cares)

#10t1##10t2#-------------------------7----|------------------------|----7----|-----
--------------8-7-8-10-8---10-|-------7---7-8---7-8-10-|------8--|-----
--------------9---------------|-----9---9-----9--------|---------|-----
------------------------------|-----7------------------|---------|-----
------------------------------|------------------------|---------|-----
------------------------------|------------------------|---------|-----#/10t2##/10t1#

...you got              ...the day                ...you got

#11t1##11t2#------------------------------|-----------------7-----|--------------
-----------------7-8-7--------|--------7-8-10-8---10--|--------------
-------------7-9-------9-7-9--|-----------------------|--------------
-----------9------------------|-----------------------|--------------
------------------------------|-----------------------|--------------
------------------------------|-----------------------|--------------#/11t2##/11t1#

...take away            ...of wishky

Then comes a modfied version of the intro solo:

#12t1##12t2#---------------|---------|--------------------------|-
-----8---------|---------|--------------------------|-
-------9>11-11-|-11-9-11-|-11-12-12>11>9>7-7>9-9>6--|-
--9------------|---------|--------------------------|-
---------------|---------|--------------------------|-
---------------|---------|--------------------------|-#/12t2##/12t1#

#13t1##13t2#------10----10-----------|-------------------------------|
---8-----10----8-7-------|------8>10>10--7>8---8---------|
-7-----------------9-7---|-------------------9---7-------|
-----------------------7-|-------------------------9-7---|
-------------------------|-------------------------------|
-------------------------|-------------------------------|#/13t2##/13t1#

#14t1##14t2#------------------------------------------|------------------|-
------------7-10-8-9---7---7--------------|------------------|-
--11>7--7-9----------9---9---9-6-7--------|-----11-12-11-9-9-|-
-----------------------------------9-7----|---9--------------|-
---------------------------------------10-|------------------|-
------------------------------------------|------------------|-#/14t2##/14t1#

#15t1##15t2#---------------------------|----------7---------------|-
--11>10--------------------|---8--10-----10--8--------|-
--12----12-9---------------|---9----------------9--9--|-
-------------11-9----------|--------------------------|-
-------------------12-9----|--------------------------|-
------------------------12-|--------------------------|-#/15t2##/15t1#

#16t1##16t2#-----------------|-------|-------|-------3--|-
-----------------|-------|-------|-------2--|-
-----------------|-------|-------|-------3--|-
-7-9-7-9-7-7-5-4-|-5>4>2-|-2>4>5-|-5>2---2--|-
-10--------------|-------|-------|----------|-
-----------------|-------|-------|----------|-
                                         ^#/16t2##/16t1#
                                         Go (diminished G)

After the instrumental part has begun, wait for 5 beats (i.e. 9 Es
from the bass, including the 1st long one, right after "private...
investigations"  bom bom bom... :-)

#17t1##17t2#-----------------------------------|-------------------|--------------
-----------------7-----------------|---7-8-7-----------|--------------
---------------7---9>11-11-9>14-14-|---------9>7-9-9---|--------------
-----------7-9---------------------|-----------------9-|--------------
-2-3-5>7-7-------------------------|-------------------|--------------
-----------------------------------|-------------------|--------------#/17t2##/17t1#

#18t1##18t2#--------------------|------------------7-------------|---------------------
-8>7--8---8---------|--------8-10-8-10---10-8-10>12--|-8>10>8-8-10-10------
-9------7-----------|----7-9-------------------------|-----------------9-9-
-9----------9>12>14-|--7-----------------------------|---------------------
--------------------|--------------------------------|---------------------
--------------------|--------------------------------|---------------------#/18t2##/18t1#

#19t1##19t2#---------|------------|---------------------|
---------|------------|---------------------|
-9>7>6>9-|------------|---------------------|
---------|-12>11>9-12-|------9---12---------|
---------|------------|---12---9----10-9----|
---------|------------|-------------------12|#/19t2##/19t1#

Then come some E and E7 chords, which are available on the sheet
music. :-)
Composição: Mark KnopflerColaboração e revisão: HIEGE MATEUS