Single Handed Sailor Intro

Dire Straits

Tom: G
heres the intro

riff1 x2
riff2
riff1

riff1
riff3
riff2
riff1

riff4

chords to come

#1t1#riff 1
#1t2#e|--------3h5--10---|
B|---3h6------------|
G|------------------|
D|------------------|
A|------------------|
E|------------------|#/1t2##/1t1#

#2t1#riff2
#2t2#e|--------3h5--8----|
B|---3h6------------|
G|------------------|
D|------------------|
A|------------------|
E|------------------|#/2t2##/2t1#

#3t1#riff3
#3t2#e|--------3h5--10-10--|
B|---3h6--------------|
G|--------------------|
D|--------------------|
A|--------------------|
E|--------------------|#/3t2##/3t1#

#4t1#riff4
#4t2#e|--3h5-3--------------|
B|---------3h6-3--3----|
G|---------------------|
D|---------------------|
A|---------------------|
E|---------------------|#/4t2##/4t1#
Composição: Eric Clapton / JoJo / Mark KnopflerColaboração e revisão: