busca

Six Blade Knife

Dire Straits

Riff 1 
|------------------| 
|------------------| 
|-0--x0--x3--x5--x-| 
|------------------| 
 
Bridge 
|---------------------------------------------------------| 
|---3-5-7-------x3-----------3-5-7------------------3-5-7-| 
|-5-------5---3----5---x5--5-------5--3---5555-x555-------| 
|--------------------3------------------3-----------------| 
 
Then play the Riff 1 again 
 
Riff 2 
|------------------| 
|----------------7-| 
|-0--x0--x3--5-7---| 
|------------------|

Clipes

Cifra Club Pro

Aproveite o Cifra Club com benefícios exclusivos e sem anúncios
Cifra Club Pro
Aproveite o Cifra Club com benefícios exclusivos e sem anúncios