So far away

Dire Straits

A
123
X02220
B
234
X24442
C#m
234
X46654
E
123
022100
Tom: G
#1t1#    Intro: B                 A                 E
#1t2#E|-----------------------------------------------------------------|
B|-----------------------------------------------------------------|
G|-----------------------------------------------------------------|
D|-------------------------------------------9-X-9-X-9-------------|
A|-----9------9------9----7------7------7---/7-7-7-7-7-------------|
E|-5---7-7-7--7-7-7--7-7--5-5-5--5-5-5--5-5------------------------|#/1t2##/1t1#


#2t1#                  B       A    E
#2t2#E|-----------------------------|     |-7p4----7p4----|               E|--------------|
B|-2/9---9-10--7~~--9--5~~--5--|     |------5------5-|               B|--------------|
G|-2/9---9-9---8~~--8--6~~--4--|(2x) |---------------|  com variação G|--------------|
D|-2/9---9-11--9~~--9--7~~--6--|     |---------------|    no final   D|--6p4-4-6~----|
A|-----------------------------|     |---------------|               A|--------------|
E|-----------------------------|     |---------------|               E|--------------|#/2t2##/2t1#

E                        B
 here i am again in this mean old town
                   E
 and you're so far away from me  
                            B
 and where are you when the sun goes down
               E
 you're so far away from me

Refrão:

#3t1##3t2#E|--------------------------------------------------------------------|
B|-2/9-9--5--------4---------2/9--9--5-------4-----5------------------|
G|-2/9-9--6-----------4------2/9--9--6---------4---6------------------|
D|-2/9-9--7------6----4------2/9--9--7-----6---4---7---2-2-x-2-2-2----|
A|------------4-------2---2-------------4------2-------2-2-x-2-2-2----|
E|------------------------0----------------------------0-0-x-0-0-0----|#/3t2##/3t1#

A         C#m          B
 so far away from me
          E
 so far i just can see
A         C#m
 so far away from me
 B          A        E
 you're so far from me

#4t1#                 B       A    E
#4t2#E|------------------------------|     |-7p4----7p4----|               E|--------------|
B|-2/9--9-10--7~~--9--5~~--5~~--|     |------5------5-|               B|--------------|
G|-2/9--9-9---8~~--8--6~~--4~~--|(2x) |---------------|  com variação G|--------------|
D|-2/9--9-11--9~~--9--7~~--6~~--|     |---------------|    no final   D|--6p4-4-6~----|
A|------------------------------|     |---------------|               A|--------------|
E|------------------------------|     |---------------|               E|--------------|#/4t2##/4t1#

E                               B
 i'm tired of being in love and being all alone
                    E
 when you're so far away from me
                                B
 i'm tired of making out on the telephone
                    E
 and you're so far away from me

(Refrão) repete o refrao

E                       B
 i get so tired when i have to explain
                    E
 when you're so far away from me
                                 B
 see you're been in the sun i've been in the rain
                E
 you're so far away from me

(Refrão)
Composição: Mark KnopflerColaboração e revisão: Felipe CasselMisterioso GranThiago SilvaLucas Chavese mais 7