Sultans Of Swing Live

Dire Straits

Tom: G



Note:

This tab was found at
http://*
(we're in the year 2001 now...so if you're reading this in 2005, good luck with the site =)

This is the version from Alchemy. One of their best live performances of Sultans of Swing,
if you ask me. Enjoy!

~   =  bend ( )
^   = hammer on/pull off
>   = slide


SOLO 1:  at 3:22 of cd alchemy

#1t1##1t2#---------------------------------|-------10--12~(13)--10---------10--12--13--12------|
-13-------13---13---13-----------|----11-----------------10----10---------------13---|
-12~(14)-(14)-(14)-(14)~12-10-12-|-10-----------------------10--------------------12-|
---------------------------------|---------------------------------------------------|
---------------------------------|---------------------------------------------------|
---------------------------------|---------------------------------------------------|#/1t2##/1t1#

#2t1##2t2#---------------------------|--|-13^10--10-----------------|-------------------------------|-12-------------|
-----11-10>8---------------|--|-----------10--13^10----10-|-------------------------------|----13----13----|
---x---------10^9--7^5-----|--|---------------------12----|---------------------10^9----9-|-------12----12-|
-x---------------------8^7-|--|---------------------------|-----------10^11^12-------12---|----------------|
---------------------------|--|---------------------------|-10^11^12----------------------|----------------|
---------------------------|--|---------------------------|-------------------------------|----------------|#/2t2##/2t1#

#3t1##3t2#---------13--------13--------13--------13--------13--------13-13~(15)--13~(15)~13--12^10--------------|
-13~(15)---13~(15)---13~(15)---13~(15)---13~(15)---13~(15)--------------------------------13-10-------|
------------------------------------------------------------------------------------------------12^10-|
------------------------------------------------------------------------------------------------------|
------------------------------------------------------------------------------------------------------|
------------------------------------------------------------------------------------------------------|#/3t2##/3t1#

#4t1##4t2#--------|----------5-------|----------------------5---------------|-------|----------------|
--------|------6^5---5-8---|------6^5---------------5-5^6-5-------|-6-5-3-|-6-6-5-----10-8-|
-9^10^9-|----7-----------7-|----7-------5-7-7~(9)-----------7-5-7-|-7-5-3-|-7-7-5-----10-9-|
--------|->7---------------|->7-------5---------------------------|-7-5-3-|-------5>7------|
--------|------------------|--------------------------------------|-------|----------------|
--------|------------------|--------------------------------------|-------|----------------|#/4t2##/4t1#

#5t1##5t2#-------------------|-------------------------|
-10^8----8---------|-------5^6^5-------------|
------10---10----7-|-7~(9)-------5^7^5-------|
--------------10---|-------------------7^6^5-|
-------------------|-------------------------|
-------------------|-------------------------|#/5t2##/5t1#

SOLO 2: 4:48

#6t1##6t2#---------|-----------------------------|----------------|---------------------|----------------|
-13------|-----------------------------|----------------|---------------------|-10^8------8----|
-12~(14)-|-12-12-12-12-x-10----12~(14)-|-9^12^9--7^9^7--|-5^7^5---------------|------10-7---10-|
---------|------------------12---------|----------------|-------5^7^5---------|----------------|
---------|-----------------------------|----------------|-------------5^7^5-3-|----------------|
---------|-----------------------------|----------------|---------------------|----------------|#/6t2##/6t1#

#7t1##7t2#-------10--12^10----10-|---10-12^10--10-|-----10-12^10---------------------------|--------------------|
----13-----------13----|--x----------13-|---x----------13-13-------13---13---13--|----------10^13^10--|
-12--------------------|-x--------------|-x---------------12~(14)-(14)-(14)-(14)-|-10^12--------------|
-----------------------|----------------|----------------------------------------|--------------------|
-----------------------|----------------|----------------------------------------|--------------------|
-----------------------|----------------|----------------------------------------|--------------------|#/7t2##/7t1#

#8t1##8t2#----------------------|----------------|---------------------------|------------------------|-----------|
----------------------|-----10---------|----------10-11-10---------|------------------------|-----------|
-12^10----10^12-12-12-|---x----12-10-9-|----10^12----------12-10-9-|-7~(9)-7-5^7--7~(10)--7-|-7~(9)-7^5-|
-------12-------------|-x--------------|-12------------------------|------------------------|-7~(9)-7^5-|
----------------------|----------------|---------------------------|------------------------|-----------|
----------------------|----------------|---------------------------|------------------------|-----------|#/8t2##/8t1#

#9t1##9t2#----------|-----8-x-7------------------------|-----------------|-----------------|------------------------|
----------|---x-------10-8-x-8-6-------------|-5---5^6---6---5-|-------3^6-3---3-|-6~(8)-6~(8)-5^6^8-5----|
-------5--|-x--------------------7-x-7-7-7-7-|-5-x-5-----5---5-|-5~(7)-------5---|---------------------5--|
-7--------|----------------------------------|-----------------|-----------------|------------------------|
---7^8----|----------------------------------|-----------------|-----------------|------------------------|
----------|----------------------------------|-----------------|-----------------|------------------------|#/9t2##/9t1#


#10t1##10t2#-----------|-----------------------------3----------3-----------3-|-5^3-----5^3-----5^3-----5^3-----|
-5^6-5-3^5-|-3-------3-------6^3-------3---------3------------3---|-----6^3-----6^3-----6^3-----6^3-|
-----------|---5~(7)---5~(7)-----5~(7)-----5~(7)--------5~(7)-----|---------------------------------|
-----------|------------------------------------------------------|---------------------------------|
-----------|------------------------------------------------------|---------------------------------|
-----------|------------------------------------------------------|---------------------------------|#/10t2##/10t1#

#11t1##11t2#------------------3---------3--------3---|-------------------------------------|
-------3-6^3----3---6^3---3---6^3--3-----|-x-3~(5)~3-1-0-----------------------|
-5~(7)--------5---------5--------------5-|---------------2-0---------------3---|
-----------------------------------------|-------------------3-0-------3^5---5-|
-----------------------------------------|-----------------------3^4^5---------|
-----------------------------------------|-------------------------------------|#/11t2##/11t1#

#12t1##12t2#----------------------------------------------------------|
----------------------------------------------------------|
----------------------------------------------------------|
-0-x-0--x-0-3--0-x-3--0-x-3--0-x-3--0-x-3--0-x-3--0-x-3---|
----------------------------------------------------------|
----------------------------------------------------------|#/12t2##/12t1#

#13t1##13t2#-------------------------------|---------|
-------------------------------|---------|
------------5----------5-----5-|-7^5---5-|
-0-x-0^5-x--0-x-0^5--0-x-0^5---|-----7---|
-------------------------------|---------|
-------------------------------|---------|#/13t2##/13t1#

#14t1##14t2#---------------------------------------------------------|
---------------------------------------------------------|
---------------------------------------------------------|
-0-x-0-x-0-3--0-x-3--0-x-3--0-x-3--0-x-3--0-x-3--0-x-3---|
---------------------------------------------------------|
---------------------------------------------------------|#/14t2##/14t1#

#15t1##15t2#-------------------------------|---------------|-------------------|
-------------------------------|---------------|---8^6----8^6----6-|
------------5----------5-----5-|-7^5---7~(9)-7-|-7------7------7---|
-0-x-0^5-x--0-x-0^5--0-x-0^5---|-----7---------|-------------------|
-------------------------------|---------------|-------------------|
-------------------------------|---------------|-------------------|#/15t2##/15t1#

#16t1##16t2#-------------------------------------------------|------------------|-----8-10----10>12---|
-8-------8--------8------------8-----8-----8-----|--------------6---|---------------------|
-7~(9)--(9)~7--5--7~(9)--7--5--7~(9)-7~(9)-7~(9)-|-------7--------7-|-7>9------10------12-|
-------------------------------------------------|-5^7-7---5--7-----|---------------------|
-------------------------------------------------|------------------|---------------------|
-------------------------------------------------|------------------|---------------------|#/16t2##/16t1#

#17t1##17t2#-12~(13)-----------------|
---------13-10--13~(15)--|
-------------------------|
-------------------------|
-------------------------|
-------------------------|#/17t2##/17t1#

#18t1#SOLO 3: 6:52
#18t2#----------------------|---------------------------------|-----------|----------------------|
-------10----------10-|----------11~-10-------10--------|-----------|-------10----------10-|
-10^12----12-10-------|-12-10-----------12-10----12-12--|-12^10^12--|-10^12----12-10-------|
----------------12----|-------12------------------------|-----------|----------------12----|
----------------------|---------------------------------|-----------|----------------------|
----------------------|---------------------------------|-----------|----------------------|#/18t2##/18t1#

#19t1##19t2#------------------------|----------------------|----------------------|--------------------------------------|
----------11-10---------|----------------------|-------10----------10-|-10---------------11-10-----------10--|
-12-10----------12-10-9-|-9^10^12--10--9^10^12-|-10^12----12-10-------|-----12-10----------------12^10-------|
-------12---------------|----------------------|----------------12----|--------------12----------------------|
------------------------|----------------------|----------------------|--------------------------------------|
------------------------|----------------------|----------------------|--------------------------------------|#/19t2##/19t1#

#20t1##20t2#----------------|-8----------------------------|-10-------10----------|----------------|
----------------|-8-10-------10----------13-11-|----13^11----13-------|----8-10^8------|
-12---12^10^12--|------10-------12-10----------|----------------12-12-|-10--------10-7-|
----------------|---------12----------12-------|----------------------|----------------|
----------------|------------------------------|----------------------|----------------|
----------------|------------------------------|----------------------|----------------|#/20t2##/20t1#

SOLO 4: 7:33

#21t1##21t2#-----------------|------------|-----------------------|
----8-10^8----10-|-10^8----11-|----8-10^8----8-8----8-|
-10--------10----|------10----|-10--------10-----10---|
-----------------|------------|-----------------------|
-----------------|------------|-----------------------|
-----------------|------------|-----------------------|#/21t2##/21t1#

#22t1##22t2#-----------------|------------|-10^8^10--8------|-13-12-------|
----8-10^8----10-|-10^8----11-|------------8-8--|-------13----|
-10--------10----|------10----|-----------------|----------12-|
-----------------|------------|-----------------|-------------|
-----------------|------------|-----------------|-------------|
-----------------|------------|-----------------|-------------|#/22t2##/22t1#

#23t1##23t2#-----------------|------------|-----------------------|-8-|
----8-10^8----10-|-10^8----11-|----8-10^8----8-8----8-|-8-|
-10--------10----|------10----|-10--------10-----10---|---|
-----------------|------------|-----------------------|---|
-----------------|------------|-----------------------|---|
-----------------|------------|-----------------------|---|#/23t2##/23t1#

#24t1##24t2#-----------------|-------------|-10^8^10-8-----|-------------|
----8-10^8----10-|-10^8----11--|-----------8-8-|-8~(10)~8----|
-10--------10----|------10-----|---------------|----------10-|
-----------------|-------------|---------------|-------------|
-----------------|-------------|---------------|-------------|
-----------------|-------------|---------------|-------------|#/24t2##/24t1#

#25t1##25t2#-----------------|------------|-----------------------|-8-|
----8-10^8----10-|-10^8----11-|----8-10^8----8-8----8-|-8-|
-10--------10----|------10----|-10--------10-----10---|---|
-----------------|------------|-----------------------|---|
-----------------|------------|-----------------------|---|
-----------------|------------|-----------------------|---|#/25t2##/25t1#

#26t1##26t2#-----------------|------------|-10^8^10-8------|-13-12-------|
----8-10^8----10-|-10^8----11-|-----------8-8--|-------13----|
-10--------10----|------10----|----------------|----------12-|
-----------------|------------|----------------|-------------|
-----------------|------------|----------------|-------------|
-----------------|------------|----------------|-------------|#/26t2##/26t1#

#27t1##27t2#------------------|------------|-----------------------|-8-|
----8-10^8----10--|-10^8----11-|----8-10^8----8-8----8-|-8-|
-10--------10-----|------10----|-10--------10-----10---|---|
------------------|------------|-----------------------|---|
------------------|------------|-----------------------|---|
------------------|------------|-----------------------|---|#/27t2##/27t1#

#28t1##28t2#-----------------|------------|-10^8^10-8-----|
----8-10^8----10-|-10^8----11-|-----------8-8-|
-10--------10----|------10----|---------------|
-----------------|------------|---------------|
-----------------|------------|---------------|
-----------------|------------|---------------|#/28t2##/28t1#


#29t1##29t2#----10-13^10----13-10-|----10-13^10----13-10-|----10-13^10----13-12-12-|-10-13-12-12-|
-13----------13-------|-13----------13-------|-13-----------13---------|-------------|
----------------------|----------------------|-------------------------|-------------|
----------------------|----------------------|-------------------------|-------------|
----------------------|----------------------|-------------------------|-------------|
----------------------|----------------------|-------------------------|-------------|#/29t2##/29t1#

#30t1##30t2#----10-13^10----13-10-|----10-13^10---13-10-|----10-13^10----13-12-12-|-13~(15)-|
-13----------13-------|-13----------13------|-13----------13----------|---------|
----------------------|---------------------|-------------------------|---------|
----------------------|---------------------|-------------------------|---------|
----------------------|---------------------|-------------------------|---------|
----------------------|---------------------|-------------------------|---------|#/30t2##/30t1#

#31t1##31t2#----10-13^10----13-10-|----10-13^10----13-10-|----10-13^10----13-12-12-|-10-13-12-12-|
-13----------13-------|-13----------13-------|-13----------13----------|-------------|
----------------------|----------------------|-------------------------|-------------|
----------------------|----------------------|-------------------------|-------------|
----------------------|----------------------|-------------------------|-------------|
----------------------|----------------------|-------------------------|-------------|#/31t2##/31t1#

#32t1##32t2#----10-13^10----13-10-|----10-13^10----13-10-|----10-13^10----13-12-12-|-13~(15)-|
-13----------13-------|-13----------13-------|-13----------13----------|---------|
----------------------|----------------------|-------------------------|---------|
----------------------|----------------------|-------------------------|---------|
----------------------|----------------------|-------------------------|---------|
----------------------|----------------------|-------------------------|---------|#/32t2##/32t1#

#33t1##33t2#-15~(17)-15~(17)-15~(17)----|-15~(17)-15~(17)----|-15~(17)-15~(17)--15-15-|-13-12^13^15-|
-------------------------15-|-----------------15-|------------------------|-------------|
----------------------------|--------------------|------------------------|-------------|
----------------------------|--------------------|------------------------|-------------|
----------------------------|--------------------|------------------------|-------------|
----------------------------|--------------------|------------------------|-------------|#/33t2##/33t1#

#34t1##34t2#-13-15-15~(17)-15~(17)----|-15~(17)-15~(17)-x-15-x-15-x-15-|-15-13^12^13-20--------------------20-|
-----------------------15-|--------------------------------|----------------20-18^17--17----20----|
--------------------------|--------------------------------|-----------------------------19-------|
--------------------------|--------------------------------|--------------------------------------|
--------------------------|--------------------------------|--------------------------------------|
--------------------------|--------------------------------|--------------------------------------|#/34t2##/34t1#

#35t1##35t2#-20~(22)-17-20--20~(22)--|-20~(22)--17-20-20-20~(22)-|-17----17-20^17-17-|--------------|
-------------------------|---------------------------|----17----------17-|-17-20^17--17-|
-------------------------|---------------------------|-------------------|-----------19-|
-------------------------|---------------------------|-------------------|--------------|
-------------------------|---------------------------|-------------------|--------------|
-------------------------|---------------------------|-------------------|--------------|#/35t2##/35t1#

#36t1##36t2#--------------|----------------|-------------------------------------------|
--------------|----------------|--------------------10-11^10--10-10-10-----|
-17^19-17-17--|----------------|-10----10^12-10-10--------12------------12-|
----------19--|-17^19^17-------|----12----------12-------------------------|
--------------|----------20-17-|-------------------------------------------|
--------------|----------------|-------------------------------------------|#/36t2##/36t1#

#37t1##37t2#---------------------------------|----------------------------------|----------10----------------|
-13------13------13------13------|-13------13------13-------13------|-------10----13^10----------|
-12~(14)-12~(14)-12~(14)-12~(14)-|-12~(14)-12~(14)-12~(14)--12~(14)-|-10^12-------------12-10----|
---------------------------------|----------------------------------|-------------------------12-|
---------------------------------|----------------------------------|----------------------------|
---------------------------------|----------------------------------|----------------------------|#/37t2##/37t1#

#38t1##38t2#----------------------|------------------------12-12-|-10-12~(13)~12-10---------|-10---------10----------|
----------------------|-----10------11-11~(13)-------|------------------13~(15)-|----13~(15)----13~(15)--|
-10-12-x-12-x-12-x-12-|---x-------x------------------|--------------------------|------------------------|
----------------------|-x-------x--------------------|--------------------------|------------------------|
----------------------|------------------------------|--------------------------|------------------------|
----------------------|------------------------------|--------------------------|------------------------|#/38t2##/38t1#

#39t1##39t2#-10---------10---------10----------10---------|-13~(15)-13-12-------|-13~(15)-13-12----|
----13~(15)----13~(15)----13~(15)-----13~(15)-|---------------13----|---------------13-|
----------------------------------------------|------------------12-|------------------|
----------------------------------------------|---------------------|------------------|
----------------------------------------------|---------------------|------------------|
----------------------------------------------|---------------------|------------------|#/39t2##/39t1#

#40t1##40t2#-13^10----10-13^10-----10-13^10----10-13^10-----10-|
-------10-----------10----------10-----------10----|
---------------------------------------------------|
---------------------------------------------------|
---------------------------------------------------|
---------------------------------------------------|#/40t2##/40t1#

#41t1##41t2#-13^10----10-13^10----10-13^10----10-13^10----10-|
-------11----------11----------11----------11----|
-------------------------------------------------|
-------------------------------------------------|
-------------------------------------------------|
-------------------------------------------------|#/41t2##/41t1#

#42t1##42t2#-15^12----12-15^12----12-15^12----12-15^12----12-|
-------13----------13----------13----------13----|
-------------------------------------------------|
-------------------------------------------------|
-------------------------------------------------|
-------------------------------------------------|#/42t2##/42t1#

#43t1##43t2#-15^12----12-15^12----12-15^12----12-15^12----10-|
-------13----------13----------13----------10----|
-------------------------------------------------|
-------------------------------------------------|
-------------------------------------------------|
-------------------------------------------------|#/43t2##/43t1#

#44t1##44t2#-13^10----10-13^10----10-13^10----10-13^10----10-|
-------10----------10----------10----------10----|
-------------------------------------------------|
-------------------------------------------------|
-------------------------------------------------|
-------------------------------------------------|#/44t2##/44t1#

#45t1##45t2#-13^10----10-13^10----10-13^10----10-13^10----10-|
-------11----------11----------11----------11----|
-------------------------------------------------|
-------------------------------------------------|
-------------------------------------------------|
-------------------------------------------------|#/45t2##/45t1#

#46t1##46t2#-15^12----12-15^12----17-12----12-15^12----17-|
-------13----------13-------13----------13----|
----------------------------------------------|
----------------------------------------------|
----------------------------------------------|
----------------------------------------------|#/46t2##/46t1#

#47t1##47t2#-12----12-15^12----17-12----12-15-|-15~(17)-15~(17)-15~(17)-13-15--13--15~(17)-|
----13----------13-------13-------|----------------------------------------15--|
----------------------------------|--------------------------------------------|
----------------------------------|--------------------------------------------|
----------------------------------|--------------------------------------------|
----------------------------------|--------------------------------------------|#/47t2##/47t1#

#48t1##48t2#---------------------|-----------|-------|----------------|-------|-------|-------|
-13^15^13--10^13^10--|-----------|-6-5-3-|-6-6-5-----10-8-|-6-5-3-|-3-3-3-|-3-3-3-|
---------------------|-9^12^9----|-7-5-3-|-7-7-5-----10-9-|-7-5-3-|-3-3-3-|-3-3-3-|
---------------------|--------10-|-------|-------5>7------|-7-5-3-|-3-3-3-|-3-3-3-|
---------------------|-----------|-------|----------------|-------|-------|-------|
---------------------|-----------|-------|----------------|-------|-------|-------|#/48t2##/48t1#

#49t1##49t2#---|-|-|-|------------------|-----3-1^0^1-|-3-|-|-----|-8-|-10^8----8----8--10^8---8|
-5-|-|-|-|------3-5^3---3-5-|---5---------|-5-|-|->10-|---|------10---10---------10-|
-5-|-|-|-|----5-------5-----|-x-----------|-5-|-|-----|---|-------------------------|
-5-|-|-|-|->5---------------|-------------|---|-|-----|---|-------------------------|
---|-|-|-|------------------|-------------|---|-|-----|---|-------------------------|
---|-|-|-|------------------|-------------|---|-|-----|---|-------------------------|#/49t2##/49t1#


#50t1##50t2#|----8-|->15-13^12^10--12-|---------10--8-|---|-8-||
|-10---|------------------|-----------8---|---|-8-||
|------|------------------|-12^10^9-------|---|---||
|------|------------------|---------------|---|---||
|------|------------------|---------------|-7-|---||
|------|------------------|---------------|---|---||#/50t2##/50t1#


Transcrit par Franck Birambaux
Composição: Mark KnopflerColaboração e revisão: