Sultans Of Swing Solo

Dire Straits

Tom: G
 This is an amazing solo so have fun with it. 
  Standard tuning

#1t1##1t2# |---------------------------------------------------|
 |---------------------------------------------------|
 |--12bu14--14bd12-10-12-10------12bu14bd12----------|
 |--------------------------12-----------------------|
 |---------------------------------------------------|
 |---------------------------------------------------| #/1t2##/1t1#

#2t1##2t2# |---------------------------------------------------|
 |---------------------------------------------------|
 |---9h12p9--7h9p7--5h7p5----------------------------|
 |-------------------------5h7p5---------------------|
 |--------------------------------5h7p5-3------------|
 |---------------------------------------------------|#/2t2##/2t1#

#3t1##3t2# |-----------------------|---------------------------|
 |--10-10-10p8-6h8p6-----|------10p8-----10p8--------|
 |-------------------7---|-----------9-------9-------|
 |-----------------------|---------------------------|
 |-----------------------|---------------------------|
 |-----------------------|---------------------------|#/3t2##/3t1#
                            This riffs played 3 times

#4t1##4t2# |-----------10--------------------------------------|
 |--------10----13p10----10--------------------10----|
 |-12bu14-------------12----12p10-----------10----12-|
 |--------------------------------12--10h12----------|
 |---------------------------------------------------|
 |---------------------------------------------------|#/4t2##/4t1#
 
#5t1#       mu         mu
#5t2# |--------------------------------12---------10------|
 |--------10--------11-----11bu13-----13bd11---------|
 |------9---------9----------------------------------|
 |---10--------10------------------------------------|
 |---------------------------------------------------|
 |---------------------------------------------------|#/5t2##/5t1#

#6t1##6t2# |---13p10--------13p10-----------15p12-----------|
 |---------10-----------11--------------12--------| 
 |------------x4-----------x4--------------x8-----|  
 |------------------------------------------------|
 |------------------------------------------------|
 |------------------------------------------------|#/6t2##/6t1#
                                     
#7t1##7t2# |---15bu17-17bd15---13--15p13---15bu17bd15-----------------------|
 |----------------------------15------------14h17p14--------------|
 |---------------------------------------------------13h16p13-----|
 |------------------------------------------------------------16--|
 |----------------------------------------------------------------|
 |----------------------------------------------------------------|#/7t2##/7t1#
Composição: Mark KnopflerColaboração e revisão: