busca

Sweet Hitch-hicker

Dire Straits

Intro:
G--------------|--------------|--------------|
D--------------|--------------|--------------|
A-5----5-5-----|-5----5-5-----|-5----5-5-----|
E----------7-5-|----------7-5-|----------7-5-|

Verse 1:
G--------------|--------------|--------------|
D--------------|--------------|--------------|
A-5----5-5-----|-5----5-5-----|--------------|
E----------7-5-|----------7-5-|-3----3-3-0-2-|

G--------------|--------------|--------------|
D--------------|--------------|--------------|
A----------2-3-|-5----5-5-----|-5----5-5-----|
E-3----3-3-----|----------7-5-|----------7-5-|

G--------------|--------------|--------------|
D--------------|--------------|--------------|
A--------------|----------2-3-|-5----5-5-----|
E-3----3-3-0-2-|-3----3-3-----|----------7-5-|

G--------------|----------------|----------------|
D--------------|----------------|--------------3-|
A-3----3-3-----|----------------|------------5---|
E----------0-2-|-3----3-3-3-0-2-|-3----3-3-3-----|

G--------------|----------------|------------|
D----------5---|------------5-7-|------------|
A-3----3-3---3-|--------5-7-----|-5---5-5-5--|
E--------------|-5----8---------|------------|

G----------------|
D----------------|
A-5-5----5-5-----|
E------------2-3-|

Chorus:
G-----------------|-----------------|----------------|
D-----------------|-----------------|----------------|
A-----------------|-----------------|--------------3-|
E-5-5---5-5-5---5-|-5-5---5-5-5---5-|-3-3----3-3-5---|

G----------------|-----------------|-----------------|
D----------------|-----------------|---------------5-|
A-5-5----5-5-----|-----------------|-------------5---|
E------------2-3-|-5-5---5-5-5---5-|-5-5---5-5-5-----|

G----------------|
D----------------|
A----------------|
E-3--------------|

Verse 2:
G--------------|--------------|--------------|
D--------------|--------------|--------------|
A-5----5-5-----|-5----5-5-----|--------------|
E----------7-5-|----------7-5-|-3----3-3-0-2-|

G--------------|--------------|--------------|
D--------------|--------------|--------------|
A----------2-3-|-5----5-5-----|-5----5-5-----|
E-3----3-3-----|----------7-5-|----------7-5-|

G--------------|--------------|--------------|
D--------------|--------------|--------------|
A--------------|----------2-3-|-5----5-5-----|
E-3----3-3-0-2-|-3----3-3-----|----------7-5-|

G--------------|----------------|----------------|
D--------------|----------------|--------------3-|
A-3----3-3-----|----------------|------------5---|
E----------0-2-|-3----3-3-3-0-2-|-3----3-3-3-----|

G--------------|----------------|------------|
D----------5---|------------5-7-|------------|
A-3----3-3---3-|--------5-7-----|-5---5-5-5--|
E--------------|-5----8---------|------------|

G-----------------|
D---------4-5-6-7-|
A-5-5---5---------|
E-----------------|

Chorus:
G-----------------|-----------------|----------------|
D-----------------|-----------------|----------------|
A-----------------|-----------------|------------2-3-|
E-5-5---5-5-5---5-|-5-5---5-5-5---5-|-3-3----3-3-----|

G--------------|-----------------|----------------|
D--------------|-----------------|--------------5-|
A-5----5-5-----|-----------------|------------5---|
E----------2-3-|-5-5---5-5-5---5-|-5-5---5-5-5----|

G---------------|
D---------------|
A---------------|
E-3-------------|

Solo:
G--------------|--------------|------------------|
D--------------|--------------|------------------|
A-5----5-5---5-|-3------------|------------------|
E----------7---|---0--1--2--3-|-3-3----3-3-3-0-2-|

G------------------|-----------------|-----------------|
D----------------3-|-------------5---|---------------5-|
A--------------5---|-3-3---3-3-3---3-|-------------7---|
E-3-3----3-3-3-----|-----------------|-5-5---5-5-5-----|

G---------------|----------7--7-|
D---------------|---------------|
A-5---5-5-5---5-|-5-5---5-------|
E---------------|---------------|

Verse 3: (Play verse 2)

Chorus:
G-----------------|-----------------|----------------|
D-----------------|-----------------|----------------|
A-----------------|-----------------|------------2-3-|
E-5-5---5-5-5---5-|-5-5---5-5-5---5-|-3-3----3-3-----|

G--------------|-----------------|-----------------|
D--------------|-----------------|---------------5-|
A-5----5-5-----|-----------------|-------------5---|
E----------2-3-|-5-5---5-5-5---5-|-5-5---5-5-5-----|

G----------------|
D----------------|
A----------------|
E-3--------------|

Chorus (fade out...):
G-----------------|------------------|----------------|
D*----------------|----------------5-|----------------|
A*----------------|------------5-7---|------------2-3-|
E-5-5---5-5-5---5-|-5-5----5-7-------|-3----3-3-3-----|

G--------------|
D-------------*|
A-5----5-5----*|
E----------2-3-|

Clipes