Twisting By The Pool

Dire Straits

A
123
X02220
D
123
XX0232
E
123
022100
Tom: G

By davey1272250
email *



Intro lick - jonny B goode style

#1t1##1t2#e|------0-0-0-0-0-0-0-0-0---------------|
B|-----\8-8-7-7-5-5-7-7-8---------------|
G|--------------------------------------|
D|--------------------------------------|
A|--------------------------------------|
E|--------------------------------------|#/1t2##/1t1#

#2t1##2t2#e|------0-0-0-0-0-0------/8-8-7-5-------|
B|-----/8-8-7-7-5-5------/8-------8-5---|
G|--------------------------------------|
D|--------------------------------------|
A|--------------------------------------|
E|--------------------------------------|#/2t2##/2t1#


The Rock & Roll groove pattern follows
(use barre chords on the 4th,5th,6th strings with the pinky playing the 6th notes of course!)


A                       D               E
Were Going on a Holiday Swing,swing....(rpt)

D              E
Yeah its gonna be so neat...(rpt)

E
Twisting By the....

A                   D
Twisting By the Pool...



pre solo slow bit..

Bm   F#   Bm    D    E....  (a one, a two, a one two three four..)


the solo licks go a bit like this i think?

#3t1##3t2#e|----------------------------------------------------------------------|
B|----/14-14--12-14-12-14-------/15-15-17-15---/12-12-14-12-------------|
G|----/14-14--12-14-12-14-------/14-14---------/12-12-------------------|
D|----------------------------------------------------------------------|
A|----------------------------------------------------------------------|
E|----------------------------------------------------------------------|#/3t2##/3t1#

Repeat once




Not much to the song really, but a great party song!







Composição: Colaboração e revisão: