busca

Cair Em Si

Djavan

Tom: F
Intro: Em7(9)  F#m7  Gm6  Bb5+/D  Em7(9)  F#m7  Gm6  Bb5+/D

Em7(9)                        F#m7   Gm6 Bb5+/D
       Às vezes parece um tam-----bor
Em7(9)                                  F#m7  Gm6 Bb5+/D
      Mas não é tambor nem nada é o coração
Em7(9)                             F#m7   Gm6 Bb5+/D
      Que fica entre a paz e o ter-----ror
Em7(9)                                F#m7        Gm6   Bb5+/D
      Quando vejo a sua cara entre as caras da multidão
Em7(9)             F#m7  Gm6 Bb5+/D
      Logo fico cansado
Em7(9)                  F#m7         Gm6 Bb5+/D
      Como se tivesse estado a correr
Em7(9)                             F#m7              Gm6 Bb5+/D
      Num segundo já me sinto sem uma  gota de sangue
    Em7(9)                   F#m7  Gm6 Bb5+/D
Mal consigo respirar, sobreviver
Em7(9)               F#m7  Gm6 Bb5+/D
      Só Deus sabe o saldo
Em7(9)             F#m7             Gm6 Bb5+/D
      Creditado ao amor que lhe dou
Em7(9)                             F#m7              Gm6 Bb5+/D
      Se terei sono tranqüilo ou vida  sobressaltada
    Em7(9)          F#m7     Gm6 Bb5+/D
Não sei   nada, não sei nada

Em7(9)                  F#m7      Gm6 Bb5+/D
      Olhar pro sol, vencer o mar
Em7(9)            F#m7          Gm6    Bb5+/D
      Admitir, brigar com o par Isso é nada
Em7(9)                F#m7      Gm7 Bb5+/D
      Não ter você, cair  em si
Em7(9)                   F#m7       Gm6     Bb5+/D
      Morrer de amor não é   o fim, mas me acaba

( Em7(9)  F#m7  Gm7  Bb5+/D  Em7(9)  F#m7  Gm6  Bb5+/D )

Solo de guitarra:

E|-----------------------------------------------|
B|-----------------------------------------------|
G|-7-7-6---6-7----7-6-6-7-6---6-7-9-11-----------|
D|-------7------------------7--------------------|
A|-----------------------------------------------|
E|-----------------------------------------------|

E|-----------------------------------------------|
B|-----------------------------------------------|
G|-7-7-6---6-7----7-6-6-7-6---6-7-9--------------|
D|-------7------------------7--------------------|
A|-----------------------------------------------|
E|-----------------------------------------------|

Clipes

Cifra Club Pro

Aproveite o Cifra Club com benefícios exclusivos e sem anúncios
7 dias grátis
Cifra Club Pro
Aproveite o Cifra Club com benefícios exclusivos e sem anúncios
7 dias grátis