Eu Te Devoro

Djavan

A7(4/9)
1234
5X543X
B9/A
234
5X4422
Bm
234
X24432
Bm7(9)
123
X2022X
C7(9)
1234
X3233X
D7M
123
XX0222
Em
12
022000
F#m7
1234
2X222X
G7M
1234
3X443X
G9
12
3X020X
Tom: G
[Intro] D7M  Bm7(9)  G9  Em  A7(4/9)
        D7M  Bm7(9)  G9  Em  A7(4/9)

#1t1#Parte 1 de 5
  D7M
#1t2#E|-----x-----------x------------------------|
B|-2-2-x-----2-3p2-x------------------------|
G|-2-2-x-x---2-2---x-2----------------------|
D|-0---x---0-0-----x---0--------------------|
A|-----x-----------x------------------------|
E|-----x-----------x------------------------|#/1t2##/1t1#

#2t1#Parte 2 de 5
  Bm7(9)
#2t2#E|-----x-----------x------------------------|
B|-2-2-x-----2-3\2-x------------------------|
G|-2-2-x-----2-2---x-2----------------------|
D|-0---x-0---0-----x------------------------|
A|-2---x---2-2-----x---2--------------------|
E|-----x-----------x------------------------|#/2t2##/2t1#

#3t1#Parte 3 de 5
   G9                      Em
#3t2#E|-----x-------x---------------x------------|
B|-0-0-x-----0-x-0---0---------x------------|
G|-2-2-x-----2-x-2---2---2-4-4-x------------|
D|-0-0-x-x---0-x-0---0---4-5-5-x-x----------|
A|-----x-------x---------------x------------|
E|-3---x---x---x---3---3---0---x---0--------|
                     ↓#/3t2##/3t1#
#4t1#Parte 4 de 5
   A7(4/9)
#4t2#E|-----0-0----------------------------------|
B|-----3-3----------------------------------|
G|-----4-4----------------------------------|
D|-----5-5----------------------------------|
A|-0-0-----0--------------------------------|
E|------------------------------------------|
       ↓ ↑#/4t2##/4t1#

#5t1#Parte 4 de 5 (Variação)
   A7(4/9)
#5t2#E|------------------------------------------|
B|---3---3h5--------------------------------|
G|---4---4----------------------------------|
D|---5---5----------------------------------|
A|-0---0-----0------------------------------|
E|------------------------------------------|#/5t2##/5t1#

#6t1#Parte 5 de 5
   C7(9)
#6t2#E|------------------------------------------|
B|-3-3-3---3-3------------------------------|
G|-3-3-3---3-3------------------------------|
D|-2-2-2---2-2------------------------------|
A|-3-----3-----3----------------------------|
E|------------------------------------------|
     ↓ ↑   ↓ ↑#/6t2##/6t1#

[Primeira Parte]

 D7M
Teus sinais
                   Bm7(9)
Me confundem da cabeça aos pés

Mas por dentro 
           G9  Em  A7(4/9)
Eu te devoro

 D7M
Teu olhar
                  Bm7(9)
Não me diz exato quem tu és
                     G9
Mesmo assim eu te devoro
 Em       A7(4/9)
Te devoraria 

    D7M
A qualquer preço
                     Bm7(9)
Porque te ignoro ou te conheço

Quando chove 
           G9      Em  A7(4/9)
Ou quando faz frio

 D7M
Noutro plano
              Bm7(9)
Te devoraria tal Caetano
              G9
A Leonardo DiCaprio
C7(9)
É um milagre

[Refrão]

 Bm              B9/A            G7M
Tudo que Deus criou pensando em você
       Bm          B9/A        G7M
Fez a Via-Láctea, fez os dinossauros
        Bm           B9/A        G7M
Sem pensar em nada, fez a minha vida
   F#m7  G7M
E te deu

        Bm           B9/A      G7M
Sem contar os dias que me faz morrer
       Bm           B9/A     G7M
Sem saber de ti, jogado à solidão
        Bm
Mas se quer saber 
       B9/A        G7M
Se eu quero outra vida
 F#m7    G7M
Não, não

#7t1#[Parte 1 de 4]
   Bm      B9/A
#7t2#E|---2-2------2-2---------------------------|
B|-3-3-3----2-2-2---------------------------|
G|-4-4-4----4-4-4---------------------------|
D|-4--------4-------------------------------|
A|-2-----2--0-----0-------------------------|
E|------------------------------------------|
     ↓ ↑      ↓ ↑#/7t2##/7t1#

#8t1#[Parte 2 de 4]
  G7M
#8t2#E|-----x-------x----------------------------|
B|-3-3-x-----3-x-3---3-3--------------------|
G|-4-4-x-----4-x-4---4-4--------------------|
D|-4-4-x-x---4-x-4---4-4--------------------|
A|-----x-------x----------------------------|
E|-3---x---x---x---3-----3------------------|
                     ↓ ↑#/8t2##/8t1#

#9t1#[Parte 3 de 4]
  F#m7
#9t2#E|-----x-------x----------------------------|
B|-2-2-x-----2-x-2---2-2--------------------|
G|-2-2-x-----2-x-2---2-2--------------------|
D|-2-2-x-x---2-x-2---2-2--------------------|
A|-----x-------x----------------------------|
E|-2---x---x---x---2-----2------------------|
                     ↓ ↑#/9t2##/9t1#

#10t1#[Parte 4 de 4]
  F#m7     G7M
#10t2#E|------------------------------------------|
B|-2-2-2----3-3-3---------------------------|
G|-2-2-2----4-4-4---------------------------|
D|-2-2-2----4-4-4---------------------------|
A|------------------------------------------|
E|-2-----2--3-----3-------------------------|
     ↓ ↑      ↓ ↑#/10t2##/10t1#

#11t1#[Parte 4 de 4 (variação)]
   G7M
#11t2#E|-------2----------------------------------|
B|-3---3------------------------------------|
G|-4-4--------------------------------------|
D|-4----------------------------------------|
A|------------------------------------------|
E|-3----------------------------------------|#/11t2##/11t1#

( D7M  Bm7(9)  G9  Em  A7(4/9) )
( D7M  Bm7(9)  G9  Em  A7(4/9) )

[Primeira Parte]

 D7M
Teus sinais
                   Bm7(9)
Me confundem da cabeça aos pés

Mas por dentro 
           G9  Em  A7(4/9)
Eu te devoro

 D7M
Teu olhar
                  Bm7(9)
Não me diz exato quem tu és
                     G9
Mesmo assim eu te devoro
 Em       A7(4/9)
Te devoraria 

    D7M
A qualquer preço
                     Bm7(9)
Porque te ignoro ou te conheço

Quando chove 
           G9      Em  A7(4/9)
Ou quando faz frio

 D7M
Noutro plano
              Bm7(9)
Te devoraria tal Caetano
              G9
A Leonardo DiCaprio
C7(9)
É um milagre

[Refrão]

 Bm              B9/A            G7M
Tudo que Deus criou pensando em você
       Bm          B9/A        G7M
Fez a Via-Láctea, fez os dinossauros
        Bm           B9/A        G7M
Sem pensar em nada, fez a minha vida
   F#m7  G7M
E te deu

        Bm           B9/A      G7M
Sem contar os dias que me faz morrer
       Bm           B9/A     G7M
Sem saber de ti, jogado à solidão
        Bm
Mas se quer saber 
       B9/A        G7M
Se eu quero outra vida
 F#m7    G7M
Não, não

[Final]

D7M
    Eu quero mesmo é viver
  Bm7(9)
Pra esperar, esperar
     G9      Em  A7(4/9)
Devorar você

D7M
    Eu quero mesmo é viver
  Bm7(9)
Pra esperar, esperar
     G9      Em  A7(4/9)
Devorar você
Composição: DjavanColaboração e revisão: Getúlio VasconcelosLeandro SandimMiguel BrazMatheuse mais 3
Videoaula Eu Te Devoro (aula de violão completa)