busca

Já Não Somos Dois

Djavan

Tom: G
[Intro] F#m6  Dm6  A7M 
        A6  A7M  A6

D7M      D6         D7M        D6
  Onde a luz do iluminado amor se escondeu
A7M     A6          A7M     A6
  Me azoou depois desapareceu
D7M      D6         D7M        D6
  Meio do nada minha doce amada expôs
     A7M         A6          A7M     A6
Que ela e eu já não somos dois

D7M      D6         D7M        D6
  Tu me negas leva tudo às cegas porque
A7M      A6            A7M     A6
  É mais fluido do que faz parecer
D7M      D6         D7M        D6
  E pensar  que memoráveis tardes passei
A7M      A6            A7M     A6
De lembrar te beijarei

             G7M           C7M       C7/9
Não sei desanimar te quero night and day
            A7M A6    A7M A6
Sei do que faço jus
             G7M              C7M C9(#11)
Sem saber mergulhar ou mesmo nadar
              A7M A6  A7M A6
Águas que atravessei

                F#m6
Um par dividido ao meio
                  Dm6
Um poço de drama, cheio
              A7M   A6  A7M A6
No vau da eternidade

            F#m6
No canto da solidão
        Dm6
Semente nativa
               A7M  A6  A7M A6
Germina bem á vontade

E|---------------------------------------|
B|---------------------------------------|
G|-------------9/10--9--7----------------|
D|--9/11--11---9-----9--7---9/11---------|
A|--7/9---9-----------------7/9----------|
E|---------------------------------------|

E|---------------------------------------|
B|---------------------------------------|
G|---------------------------------------|
D|---------9--------------9--------------|
A|--9-11-9---11----9-11-9---11-----------|
E|---------------------------------------|

E|---------------------------------------|
B|---------------------------------------|
G|-------------9-11-13~~~--9----12-------|
D|--------9-11---------------11----------|
A|--9-11---------------------------------|
E|---------------------------------------|

E|---------------------------------------|
B|---------------------------------------|
G|--10p9--------10p9---------------------|
D|-------12-11--------12-10--------------|
A|---------------------------9-11-9-9/11-|
E|---------------------------------------|

E|---------------------------------------|
B|---------------------------------------|
G|------------------13h16----13----------|
D|-----11-----14-11-------14----11-14----|
A|--11----11--------------------------11-|
E|---------------------------------------|

Clipes