busca

Meu Bem Querer

Djavan

Tom: A
Intro 2x: A7M   A5(7M/9)  Bm7   E7(4/9)

Parte 1:
   A7M   A5(7M/9)  Bm7   E7(4/9)
E|------x-------x-------x-------x-----------|
B|--2---x---0---x---3---x---3---x-----------|
G|--1---x---1---x---2---x---2---x-----------|
D|--2---x---2---x---4---x---4---x-----------|
A|--0---x---0---x---2---x-------x-----------|
E|------x-------x-------x---0---x-----------|

Primeira parte:
A7M         A5(7M/9)  E7(4/9)
  Meu bem querer
                 A7M   A5(7M/9)
É segredo, é sagrado
         E7(4/9)
Está sacramentado
          A7M   A5(7M/9)  E7(4/9)
Em meu coração

A7M         A5(7M/9)  E7(4/9)
  Meu bem querer
                A7M   A5(7M/9)
Tem um quê de pecado
    E7(4/9)
Acariciado
       A7M  A5(7M/9)  E/G#  G#º
Pela emoção

Parte 1:
   A7M   A5(7M/9) E7(4/9)
E|------x-------x-------x-------x-----------|
B|--2---x---0---x---3---x---3---x-----------|
G|--1---x---1---x---2---x---2---x-----------|
D|--2---x---2---x---4---x---4---x-----------|
A|--0---x---0---x-------x-------x-----------|
E|------x-------x---0---x---0---x-----------|

Parte 2:
   A7M   A5(7M/9)  E/G#    G#º
E|------x-------x-------x-------x-----------|
B|--2---x---0---x---5---x---3---x-----------|
G|--1---x---1---x---4---x---4---x-----------|
D|--2---x---2---x---2---x---3---x-----------|
A|--0---x---0---x-------x-------x-----------|
E|------x-------x---4---x---4---x-----------|

Refrão:
F#m
  Meu bem querer
C#m7          D7M(9)              Dm6
  Meu encanto,      estou sofrendo   tanto
  C#m7              
Amor, e o que é o sofrer
 B7/D#  Dm6    C#m7  F#m
Para   mim que estou
   Bm7   E7(4/9)
Jurado pra morrer
A7M    A5(7M/9)  Bm7   E7(4/9) (2x)
  De amor

Parte 1:
 F#m             C#m7
E|------x-------x-------x-------x-----------|
B|--2---x---2---x---5---x---5---x-----------|
G|--2---x---2---x---4---x---4---x-----------|
D|--4---x---4---x---6---x---6---x-----------|
A|------x-------x---4---x---4---x-----------|
E|--2---x---2---x-------x-------x-----------|

Parte 2:
D7M(9)           Dm6
E|------x-------x-------x-------x-----------|
B|--5---x---5---x---0---x---0---x-----------|
G|--6---x---6---x---2---x---2---x-----------|
D|--4---x---4---x---3---x---3---x-----------|
A|--5---x---5---x---5---x---5---x-----------|
E|------x-------x-------x-------x-----------|

Parte 3:
 C#m7             
E|------x-------x---4---x---4---x-----------|
B|--5---x---5---x---3---x---3---x-----------|
G|--4---x---4---x---4---x---4---x-----------|
D|--6---x---6---x---3---x---3---x-----------|
A|--4---x---4---x-------x-------x-----------|
E|------x-------x-------x-------x-----------|

Parte 4:
              B7/D#    Dm6 *
E|--3---x---3---x---2---x---1---x-----------|
B|--2---x---2---x---0---x---0---x-----------|
G|--3---x---3---x---2---x---2---x-----------|
D|--2---x---2---x---1---x---0---x-----------|
A|------x-------x-------x-------x-----------|
E|------x-------x-------x-------x-----------|

Parte 5:
 C#m7    F#m     Bm7    E7(4/9)
E|------x-------x-------x-------x-----------|
B|--5---x---2---x---3---x---3---x-----------|
G|--4---x---2---x---2---x---2---x-----------|
D|--6---x---4---x---4---x---4---x-----------|
A|--4---x-------x---2---x-------x-----------|
E|------x---2---x-------x---0---x-----------|

Clipes

Cifra Club Pro

Aproveite o Cifra Club com benefícios exclusivos e sem anúncios
7 dias grátis
Cifra Club Pro
Aproveite o Cifra Club com benefícios exclusivos e sem anúncios
7 dias grátis