Se Não Vira Jazz

Djavan

A7(13-)
12
X0X021
Bb7
34
X13131
C#6(9)
234
X43344
C6(9)
234
X32233
Cm7
34
X35343
Dm7
34
X57565
Dm7(b5)
123
XX0111
Em7
123
022030
F#4(7/9)
123
2X210X
Fm6
123
1X011X
Fm7
1234
1X111X
G#7(9/13)
234
4X4311
G#7M
1234
4X554X
G4(7/9)
1234
3X321X
G7(9)
123
3X320X
G7(b9)
134
3X310X
Tom: G
[Intro]

Parte 1

#1t1##1t2#E|-------------------------------------------|
B|-------------------------------------------|
G|-------2--------2-----------2--------2-----|
D|---2-3------2-3---3-2---2-3------2-3-------|
A|-3--------3-----------3--------3-----------|
E|-------------------------------------------|#/1t2##/1t1#

Parte 2

#2t1##2t2#E|-------------------------------------------|
B|-------------------------------------------|
G|-------------------------------------------|
D|-------3--------3----------3-----3---------|
A|---3-4------3-4---4-2----2-----2-----------|
E|-4--------4-----------3------3-------------|#/2t2##/2t1#

Parte 1

#3t1##3t2#E|-------------------------------------------|
B|-------------------------------------------|
G|-------2--------2-----------2--------2-----|
D|---2-3------2-3---3-2---2-3------2-3-------|
A|-3--------3-----------3--------3-----------|
E|-------------------------------------------|#/3t2##/3t1#

Parte 2

#4t1##4t2#E|-------------------------------------------|
B|-------------------------------------------|
G|-------------------------------------------|
D|-------3--------3----------3-----3---------|
A|---3-4------3-4---4-2----2-----2-----------|
E|-4--------4-----------3------3-------------|#/4t2##/4t1#

[Refrão]

           C6(9)   Dm7     Em7
Pra conversar, brigar, beijar
        A7(13-)   Dm7
Eu tô pronto pra tudo
Bb7  A7(13-)   Dm7  G4(7/9)
    Não quero nada
 G7(9)   C6(9)  C#6(9)  F#4(7/9)  G4(7/9)
Sem solução

         C6(9)    Dm7   Em7
Viver é mais que bom demais
           A7(13-)   Dm7
Quando o amor tá incluso
Bb7  A7(13-)  Dm7  G4(7/9)
     É um   abuso
 G7(9)    C6(9)  Fm6
De perfeição

[Primeira Parte]

Cm7          G#7(9/13)
Eu te quero sã
           Fm7               Dm7(b5)   G7(b9)
Como uma flor no ardor do calor da manhã
  Cm7         G#7(9/13)
Pra que lamentar
               Fm7        Dm7(b5)
O que a gente não fez passou

  G7(b9)       Cm7          G#7(9/13)
Agora é outra vez pra se ligar
          Fm7              Dm7(b5)   G7(b9)
Pra discutir como reconstruir nossa paz
    Cm7          G#7M           Fm7
E o ideal de um lar brilhar de novo
    G4(7/9)  G7(9)
Se não vira jazz

[Refrão]

           C6(9)   Dm7     Em7
Pra conversar, brigar, beijar
        A7(13-)   Dm7
Eu tô pronto pra tudo
Bb7  A7(13-)   Dm7  G4(7/9)
    Não quero nada
 G7(9)   C6(9)  C#6(9)  F#4(7/9)  G4(7/9)
Sem solução

         C6(9)    Dm7   Em7
Viver é mais que bom demais
           A7(13-)   Dm7
Quando o amor tá incluso
Bb7  A7(13-)  Dm7  G4(7/9)
     É um   abuso
 G7(9) 
De perfeição

Parte 1

#5t1##5t2#E|-------------------------------------------|
B|-------------------------------------------|
G|-------2--------2-----------2--------2-----|
D|---2-3------2-3---3-2---2-3------2-3-------|
A|-3--------3-----------3--------3-----------|
E|-------------------------------------------|#/5t2##/5t1#

Parte 2

#6t1##6t2#E|-------------------------------------------|
B|-------------------------------------------|
G|-------------------------------------------|
D|-------3--------3----------3-----3---------|
A|---3-4------3-4---4-2----2-----2-----------|
E|-4--------4-----------3------3-------------|#/6t2##/6t1#

[Segunda Parte]

Cm7
A noite
Fm7                  Cm7
    A passear pela bruma
Fm7                 Dm7(b5)
    Verá em cada colina
    G7(b9)
O quanto eu te amo
 Cm7   Fm7                Cm7
Depois     a madrugada invade
Fm7                    Dm7(b5)
Um sonho em que tu me tinhas
  G4(7/9)   G7(9)
Amor de verdade

[Refrão]

           C6(9)   Dm7     Em7
Pra conversar, brigar, beijar
        A7(13-)   Dm7
Eu tô pronto pra tudo
Bb7  A7(13-)   Dm7  G4(7/9)
    Não quero nada
 G7(9)   C6(9)  C#6(9)  F#4(7/9)  G4(7/9)
Sem solução

         C6(9)    Dm7   Em7
Viver é mais que bom demais
           A7(13-)   Dm7
Quando o amor tá incluso
Bb7  A7(13-)  Dm7  G4(7/9)
     É um   abuso
 G7(9)    C6(9)
De perfeição

[Segunda Parte]

Cm7
A noite
Fm7                  Cm7
    A passear pela bruma
Fm7                 Dm7(b5)
    Verá em cada colina
    G7(b9)
O quanto eu te amo
 Cm7   Fm7                Cm7
Depois     a madrugada invade
Fm7                    Dm7(b5)
Um sonho em que tu me tinhas
  G4(7/9)   G7(9)
Amor de verdade

[Refrão]

           C6(9)   Dm7     Em7
Pra conversar, brigar, beijar
        A7(13-)   Dm7
Eu tô pronto pra tudo
Bb7  A7(13-)   Dm7  G4(7/9)
    Não quero nada
 G7(9)   C6(9)  C#6(9)  F#4(7/9)  G4(7/9)
Sem solução

         C6(9)    Dm7   Em7
Viver é mais que bom demais
           A7(13-)   Dm7
Quando o amor tá incluso
Bb7  A7(13-)  Dm7  G4(7/9)
     É um   abuso
 G7(9)   
De perfeição

Parte 1

#7t1##7t2#E|-------------------------------------------|
B|-------------------------------------------|
G|-------2--------2-----------2--------2-----|
D|---2-3------2-3---3-2---2-3------2-3-------|
A|-3--------3-----------3--------3-----------|
E|-------------------------------------------|#/7t2##/7t1#

#8t1##8t2#E|-------------------------------------------|
B|-------------------------------------------|
G|-------2--------2-----------2--------2-----|
D|---2-3------2-3---3-2---2-3------2-3-------|
A|-3--------3-----------3--------3-----------|
E|-------------------------------------------|#/8t2##/8t1#
Composição: DjavanColaboração e revisão: deivid diasLeandro Oliveira