busca

Se Não Vira Jazz

Djavan

Tom: A
[Intro]

Parte 1

E|-------------------------------------------|
B|-------------------------------------------|
G|-------2--------2-----------2--------2-----|
D|---2-3------2-3---3-2---2-3------2-3-------|
A|-3--------3-----------3--------3-----------|
E|-------------------------------------------|

Parte 2

E|-------------------------------------------|
B|-------------------------------------------|
G|-------------------------------------------|
D|-------3--------3----------3-----3---------|
A|---3-4------3-4---4-2----2-----2-----------|
E|-4--------4-----------3------3-------------|

Parte 1

E|-------------------------------------------|
B|-------------------------------------------|
G|-------2--------2-----------2--------2-----|
D|---2-3------2-3---3-2---2-3------2-3-------|
A|-3--------3-----------3--------3-----------|
E|-------------------------------------------|

Parte 2

E|-------------------------------------------|
B|-------------------------------------------|
G|-------------------------------------------|
D|-------3--------3----------3-----3---------|
A|---3-4------3-4---4-2----2-----2-----------|
E|-4--------4-----------3------3-------------|

[Refrão]

           C6(9)   Dm7     Em7
Pra conversar, brigar, beijar
        A7(13-)   Dm7
Eu tô pronto pra tudo
Bb7  A7(13-)   Dm7  G4(7/9)
    Não quero nada
 G7(9)   C6(9)  Db6(9)  Gb4(7/9)  G4(7/9)
Sem solução

         C6(9)    Dm7   Em7
Viver é mais que bom demais
           A7(13-)   Dm7
Quando o amor tá incluso
Bb7  A7(13-)  Dm7  G4(7/9)
     É um   abuso
 G7(9)    C6(9)  Fm6
De perfeição

[Primeira Parte]

Cm7          Ab7(9/13)
Eu te quero sã
           Fm7               Dm7(b5)   G7(b9)
Como uma flor no ardor do calor da manhã
  Cm7         Ab7(9/13)
Pra que lamentar
               Fm7        Dm7(b5)
O que a gente não fez passou

  G7(b9)       Cm7          Ab7(9/13)
Agora é outra vez pra se ligar
          Fm7              Dm7(b5)   G7(b9)
Pra discutir como reconstruir nossa paz
    Cm7          Ab7M           Fm7
E o ideal de um lar brilhar de novo
    G4(7/9)  G7(9)
Se não vira jazz

[Refrão]

           C6(9)   Dm7     Em7
Pra conversar, brigar, beijar
        A7(13-)   Dm7
Eu tô pronto pra tudo
Bb7  A7(13-)   Dm7  G4(7/9)
    Não quero nada
 G7(9)   C6(9)  Db6(9)  Gb4(7/9)  G4(7/9)
Sem solução

         C6(9)    Dm7   Em7
Viver é mais que bom demais
           A7(13-)   Dm7
Quando o amor tá incluso
Bb7  A7(13-)  Dm7  G4(7/9)
     É um   abuso
 G7(9) 
De perfeição

Parte 1

E|-------------------------------------------|
B|-------------------------------------------|
G|-------2--------2-----------2--------2-----|
D|---2-3------2-3---3-2---2-3------2-3-------|
A|-3--------3-----------3--------3-----------|
E|-------------------------------------------|

Parte 2

E|-------------------------------------------|
B|-------------------------------------------|
G|-------------------------------------------|
D|-------3--------3----------3-----3---------|
A|---3-4------3-4---4-2----2-----2-----------|
E|-4--------4-----------3------3-------------|

[Segunda Parte]

Cm7
A noite
Fm7                  Cm7
    A passear pela bruma
Fm7                 Dm7(b5)
    Verá em cada colina
    G7(b9)
O quanto eu te amo
 Cm7   Fm7                Cm7
Depois     a madrugada invade
Fm7                    Dm7(b5)
Um sonho em que tu me tinhas
  G4(7/9)   G7(9)
Amor de verdade

[Refrão]

           C6(9)   Dm7     Em7
Pra conversar, brigar, beijar
        A7(13-)   Dm7
Eu tô pronto pra tudo
Bb7  A7(13-)   Dm7  G4(7/9)
    Não quero nada
 G7(9)   C6(9)  Db6(9)  Gb4(7/9)  G4(7/9)
Sem solução

         C6(9)    Dm7   Em7
Viver é mais que bom demais
           A7(13-)   Dm7
Quando o amor tá incluso
Bb7  A7(13-)  Dm7  G4(7/9)
     É um   abuso
 G7(9)    C6(9)
De perfeição

[Segunda Parte]

Cm7
A noite
Fm7                  Cm7
    A passear pela bruma
Fm7                 Dm7(b5)
    Verá em cada colina
    G7(b9)
O quanto eu te amo
 Cm7   Fm7                Cm7
Depois     a madrugada invade
Fm7                    Dm7(b5)
Um sonho em que tu me tinhas
  G4(7/9)   G7(9)
Amor de verdade

[Refrão]

           C6(9)   Dm7     Em7
Pra conversar, brigar, beijar
        A7(13-)   Dm7
Eu tô pronto pra tudo
Bb7  A7(13-)   Dm7  G4(7/9)
    Não quero nada
 G7(9)   C6(9)  Db6(9)  Gb4(7/9)  G4(7/9)
Sem solução

         C6(9)    Dm7   Em7
Viver é mais que bom demais
           A7(13-)   Dm7
Quando o amor tá incluso
Bb7  A7(13-)  Dm7  G4(7/9)
     É um   abuso
 G7(9)   
De perfeição

Parte 1

E|-------------------------------------------|
B|-------------------------------------------|
G|-------2--------2-----------2--------2-----|
D|---2-3------2-3---3-2---2-3------2-3-------|
A|-3--------3-----------3--------3-----------|
E|-------------------------------------------|

E|-------------------------------------------|
B|-------------------------------------------|
G|-------2--------2-----------2--------2-----|
D|---2-3------2-3---3-2---2-3------2-3-------|
A|-3--------3-----------3--------3-----------|
E|-------------------------------------------|

Clipes