Perfect

Ed Sheeran

C9
1234
X32033
D
123
XX0232
D4
123
XX0233
Em7
123
020033
G
1234
320033
G/F#
123
2X0033
Tom: G
[Primeira Parte]

           G        Em7
I found a love for me
               C9
Darling, just dive right in
               D   D4
And follow my lead
                 G
Well, I found a girl
       Em7
Beautiful and sweet
              C9
Oh, I never knew you were the 
someone
             D  D4
Waiting for me


[Dedilhado - Primeira Parte]

Parte 1 De 4
   G
E|--------------------------------
B|-3--3--3--3--3--3---3--3--3--3--
G|-0--0--0--0--0--0---0--0--0--0--
D|--------------------------------
A|--------------------------------
E|-3------------------3-----------

E|----------| 
B|3--3------| 
G|0--0------| 
D|----------| 
A|----------| 
E|----------| 



Parte 2 De 4
   Em7
E|--------------------------------
B|-3--3--3--3--3--3---3--3--3--3--
G|-0--0--0--0--0--0---0--0--0--0--
D|--------------------------------
A|--------------------------------
E|-0------------------0-----------

E|----------| 
B|3--3------| 
G|0--0------| 
D|----------| 
A|----------| 
E|----------| 



Parte 3 De 4
   C9
E|--------------------------------
B|-3--3--3--3--3--3---3--3--3--3--
G|-0--0--0--0--0--0---0--0--0--0--
D|--------------------------------
A|-3------------------3-----------
E|--------------------------------

E|----------| 
B|3--3------| 
G|0--0------| 
D|----------| 
A|----------| 
E|----------| 



Parte 4 De 4
   D                   D4
E|----------2h3-----------------3-
B|-3--3--3--3---3--3---3--3--3--3-
G|-2--2--2--2---2--2---2--2--2--2-
D|-0-------------------0----------
A|--------------------------------
E|--------------------------------

E|----------| 
B|-3--3-----| 
G|-2--2-----| 
D|----------| 
A|----------| 
E|----------| 


[Pré-Refrão]

'Cause we were just kids
         G
When we fell in love
              Em7
Not knowing what it was
            C9               G  D
I will not give you up this 
   D4
ti___me

                  G
But darling, just kiss me slow
              Em7
Your heart is all I own
            C9                   D
And in your eyes you're holding 
   D4
mine


[Dedilhado - Pré-refrão - 1ª Estrofe]

Parte 1 De 4
   G
E|--------------------------------
B|-3--3--3--3--3--3---3--3--3--3--
G|-0--0--0--0--0--0---0--0--0--0--
D|--------------------------------
A|--------------------------------
E|-3------------------3-----------

E|----------| 
B|3--3------| 
G|0--0------| 
D|----------| 
A|----------| 
E|----------| 



Parte 2 De 4
   Em7
E|--------------------------------
B|-3--3--3--3--3--3---3--3--3--3--
G|-0--0--0--0--0--0---0--0--0--0--
D|--------------------------------
A|--------------------------------
E|-0------------------0-----------

E|----------| 
B|3--3------| 
G|0--0------| 
D|----------| 
A|----------| 
E|----------| 



Parte 3 De 4
   C9
E|--------------------------------
B|-3--3--3--3--3--3---3--3--3--3--
G|-0--0--0--0--0--0---0--0--0--0--
D|--------------------------------
A|-3------------------3-----------
E|--------------------------------

E|----------| 
B|3--3------| 
G|0--0------| 
D|----------| 
A|----------| 
E|----------| 



Parte 4 De 4
   G                  D
E|-----------------------------
B|-3--3--3--3--3--3---3--3--3--
G|-0--0--0--0--0--0---2--2--2--
D|--------------------0--------
A|-----------------------------
E|-3---------------------------

E|2h3----------| 
B|3---3--3-----| 
G|2---2--2-----| 
D|-------------| 
A|-------------| 
E|-------------| 



[Dedilhado - Pré-refrão - 2ª Estrofe]

Parte 1 De 4
   G
E|--------------------------------
B|-3--3--3--3--3--3---3--3--3--3--
G|-0--0--0--0--0--0---0--0--0--0--
D|--------------------------------
A|--------------------------------
E|-3------------------3-----------

E|----------| 
B|3--3------| 
G|0--0------| 
D|----------| 
A|----------| 
E|----------| 



Parte 2 De 4
   Em7
E|--------------------------------
B|-3--3--3--3--3--3---3--3--3--3--
G|-0--0--0--0--0--0---0--0--0--0--
D|--------------------------------
A|--------------------------------
E|-0------------------0-----------

E|----------| 
B|3--3------| 
G|0--0------| 
D|----------| 
A|----------| 
E|----------| 



Parte 3 De 4
   C9
E|--------------------------------
B|-3--3--3--3--3--3---3--3--3--3--
G|-0--0--0--0--0--0---0--0--0--0--
D|--------------------------------
A|-3------------------3-----------
E|--------------------------------

E|----------| 
B|3--3------| 
G|0--0------| 
D|----------| 
A|----------| 
E|----------| 



Parte 4 De 4
   D                   D4
E|----------2h3-----------------3-
B|-3--3--3--3---3--3---3--3--3--3-
G|-2--2--2--2---2--2---2--2--2--2-
D|-0-------------------0----------
A|--------------------------------
E|--------------------------------

E|----------| 
B|-3--3-----| 
G|-2--2-----| 
D|----------| 
A|----------| 
E|----------| 


[Refrão]

      Em7  C9             G
Baby, I'm dancing in the dark
      D             Em7
With you between my arms
C9 G Barefoot on the grass D Em7 Listening to our favorite song C9 G When you said you looked a mess D Em7 I whispered underneath my breath C9 But you heard it G D Darling, you look perfect tonight [Dedilhado - Refrão] Parte 1 De 2 Em7 C9 E|----------3------------------3-- B|-------3--------3---------3----- G|----0--------0---------0-------- D|-------------------------------- A|--------------------3----------- E|-0------------------------------ E|----------| B|---3------| G|0---------| D|----------| A|----------| E|----------| Parte 2 De 2 G D E|----------3------------------ B|-------3--------3---------3-- G|----0--------0---------2----- D|--------------------0-------- A|----------------------------- E|-3--------------------------- E|2h3----------| B|-------3-----| G|----2--------| D|-------------| A|-------------| E|-------------| [Ponte] (G G/F# Em7 D4 C9 D4) [Dedilhado - Ponte] Parte 1 De 2 G G/F# Em7 D4 E|-------3--------3--------3----- B|-------3--------3--------3----- G|----0--------0--------0-------- D|----------------------------0-- A|------------------------------- E|-3--------2--------0----------- E|---3-------| B|---3-------| G|2----------| D|-----------| A|-----------| E|-----------| Parte 2 De 2 C9 D E|----------3------------------ B|-------3--------3---------3-- G|----0--------0---------2----- D|--------------------0-------- A|-3--------------------------- E|----------------------------- E|2h3----------| B|-------3-----| G|----2--------| D|-------------| A|-------------| E|-------------| [Segunda Parte] G Well, I found a woman Em7 Stronger than anyone I know C9 She shares my dreams I hope that someday D D4 I'll share her ho_____me G I found a lover Em7 To carry more than just my secrets C9 To carry love D D4 To carry children of our own [Dedilhado - Segunda Parte] Parte 1 De 4 G E|----------3------------------3-- B|-------3--------3---------3----- G|----0--------0---------0-------- D|-------------------------------- A|-------------------------------- E|-3------------------3----------- E|----------| B|---3------| G|0---------| D|----------| A|----------| E|----------| Parte 2 De 4 Em7 E|----------3------------------3-- B|-------3--------3---------3----- G|----0--------0---------0-------- D|-------------------------------- A|-------------------------------- E|-0------------------0----------- E|----------| B|---3------| G|0---------| D|----------| A|----------| E|----------| Parte 3 De 4 C9 E|----------3------------------3-- B|-------3--------3---------3----- G|----0--------0---------0-------- D|-------------------------------- A|-3------------------3----------- E|-------------------------------- E|----------| B|---3------| G|0---------| D|----------| A|----------| E|----------| Parte 4 De 4 D D4 E|----------2h3-----------------3- B|------3---------3---------3----- G|---2----------2---------2------- D|-0-------------------0---------- A|-------------------------------- E|-------------------------------- E|----------| B|----3-----| G|-2--------| D|----------| A|----------| E|----------| [Pré-Refrão] G We are still kids, but we're so in love Em7 Fighting against all odds C9 G I know we'll be alright this D D4 ti___me G Darling, just hold my hand Em7 Be my girl, I'll be your man C9 D D4 I see my future in your eyes [Dedilhado - Pré-refrão - repetição] Parte 1 De 4 G E|----------3------------------3-- B|-------3--------3---------3----- G|----0--------0---------0-------- D|-------------------------------- A|-------------------------------- E|-3------------------3----------- E|----------| B|---3------| G|0---------| D|----------| A|----------| E|----------| Parte 2 De 4 Em7 E|----------3------------------3-- B|-------3--------3---------3----- G|----0--------0---------0-------- D|-------------------------------- A|-------------------------------- E|-0------------------0----------- E|----------| B|---3------| G|0---------| D|----------| A|----------| E|----------| Parte 3 De 4 C9 E|----------3------------------3-- B|-------3--------3---------3----- G|----0--------0---------0-------- D|-------------------------------- A|-3------------------3----------- E|-------------------------------- E|----------| B|---3------| G|0---------| D|----------| A|----------| E|----------| Parte 4 De 4 G D E|----------3------------------ B|-------3--------3---------3-- G|----0--------0---------2----- D|--------------------0-------- A|----------------------------- E|-3--------------------------- E|2h3----------| B|-------3-----| G|----2--------| D|-------------| A|-------------| E|-------------| [Refrão] Em7 C9 G Baby, I'm dancing in the dark D D4 Em7 With you between my arms C9 G Barefoot on the grass D D4 Em7 Listening to our favorite song C9 G When I saw you in that dress D D4 Looking so beautiful Em7 C9 I don't deserve this G D D4 Darling, you look perfect tonight [Solo] G Em7 C9 D D4 [Tab - Solo] Parte 1 E|---------------------------- B|---------------------------- G|------4--5--5/7--7--7/5--4-- D|-5----5--7--7/9--9--9/7--5-- A|-5h7------------------------ E|---------------------------- E|------------------------| B|------------------------| G|5/6/5/4-----------------| D|7/8/7/5-----------------| A|------------------------| E|------------------------| Parte 2 E|-------------------------------- B|-------------------------------- G|-----4--5--5/7--7/5/4--5--5/9--- D|-5---5--7--7/9--9/7/5--7--7/10-- A|-5h7---------------------------- E|-------------------------------- E|--------------------| B|--------------------| G|7--7/5--4--5--4--2--| D|9--9/7--5--7--5--4--| A|--------------------| E|--------------------| [Refrão] Em7 C9 G Baby, I'm dancing in the dark D D4 Em7 With you between my arms C9 G Barefoot on the grass D D4 Em7 Listening to our favorite song C9 G I have faith in what I see D D4 Em7 Now I know I have met an angel in C9 person G D D4 And she looks perfect C9 I don't deserve this D D4 You look perfect tonight (G G/F# Em7 D4 C9 D4 G)
Composição: Ed SheeranColaboração e revisão: Caico AntunesAugusto MachadoIvy NeriSarah Crystinnee mais 10
Videoaula Perfect (aula de violão completa)

Utilizamos cookies para personalizar sua experiência. Ao acessar o site, você concorda com a nossa Política de Privacidade.