Photograph

Ed Sheeran

A9
12
X02200
B4
234
X24452
C#m7
34
X46454
E
123
022100
Tom: G
Afinação: E A D E B E

[Intro]

#1t1##1t2#E|---0---0----------0---0-----------------------------|
B|-----4---0----------4---0---------------------------|
G|-----------5\4------------5\4-----------------------|
D|----------------------------------------------------|
A|----------------------------------------------------|
E|-0-----0---0----0-----0---0-------------------------|#/1t2##/1t1#


#2t1##2t2#E|---0---0----------0---0-----------------------------|
B|-----4---0----------4---0---------------------------|
G|-----------5\4------------5\4-----------------------|
D|----------------------------------------------------|
A|-4-----4---4----4-----4---4-------------------------|
E|----------------------------------------------------|#/2t2##/2t1#


#3t1##3t2#E|---0---0----------0---0-----------------------------|
B|-----4---0----------4---0---------------------------|
G|-----------5\4------------5\4-----------------------|
D|----------------------------------------------------|
A|-2-----2---2----2-----2---2-------------------------|
E|----------------------------------------------------|#/3t2##/3t1#


#4t1##4t2#E|---0---0--------0-----------------------------------|
B|-----4---0------0-----------------------------------|
G|-----------5\4--0-----------------------------------|
D|----------------------------------------------------|
A|-0-----0---0----0-----------------------------------|
E|----------------------------------------------------|#/4t2##/4t1#

[Primeira Parte]

            E
Loving can hurt
            C#m7
Loving can hurt sometimes
             B4                     A9
But it's the only thing that I know

              E
When it gets hard
                     C#m7
You know it can get hard sometimes
          B4
It is the only thing that 
                A9
Makes us feel alive

[Pré-Refrão]

C#m7                           A9
     We keep this love in a photograph
E                         B4
  We made these memories for ourselves
          C#m7
Where our eyes are never closing
     A9
Our hearts were never broken
     E                      B4
And time's forever frozen still

[Refrão]

            E
So you can keep me inside the pocket
         B4
Of your ripped jeans
                           C#m7
Holding me close until our eyes meet
                    A9
You won't ever be alone
                     (Passagem)
Wait for me to come home

[Passagem]

#5t1##5t2#E|---0---0----------0---0-----------------------------|
B|-----4---0----------4-------------------------------|
G|-----------5\4--------------------------------------|
D|----------------------------------------------------|
A|----------------------------------------------------|
E|-0-----0---0----0-----0-----------------------------|#/5t2##/5t1#

[Segunda Parte]

            E
Loving can heal
            C#m7
Loving can mend your soul
             B4                     A9
And it's the only thing that I know
                    E
I swear it will get easier
                          C#m7
Remember that with every piece of ya
             B4
And it's the only thing we take 
                 A9
With us when we die

[Pré-Refrão]

C#m7                           A9
     We keep this love in a photograph
E                         B4
  We made these memories for ourselves
          C#m7
Where our eyes are never closing
     A9
Our hearts were never broken
 E                      B4
Time's forever frozen still

[Refrão]

            E
So you can keep me inside the pocket
         B4
Of your ripped jeans
                           C#m7
Holding me close until our eyes meet
                    A9
You won't ever be alone
            E
And if you hurt me that's okay baby
      B4
Only words bleed
                             C#m7
Inside these pages you just hold me
                          A9
And I won't ever let you go

[Terceira Parte]

                     C#m7
Wait for me to come home
                     A9
Wait for me to come home
                     E
Wait for me to come home
                     B4
Wait for me to come home

[Refrão]

              E
So you could fit me

Inside the necklace you got
               B4
When you were sixteen

Next to your heartbeat 
          C#m7
Where I should be
                          A9
Keep it deep within your soul

            E
And if you hurt me

Well, that's okay baby
       B4
Only words bleed
                             C#m7
Inside these pages you just hold me
                          A9
And I won't ever let you go

[Final]

           E
When I'm away
                         B4
I will remember how you kissed me
                           C#m7
Under the lamppost back on 6th street
                                  A9
Hearing you whisper through the phone

Wait for me to come home
Composição: Ed Sheeran / Johnny McDaid / Martin Harrington / Thomas LeonardColaboração e revisão: Leandro SandimJavier YalibatKaka WjhGuilherme Gomese mais 2
Videoaula Photograph (violão completa)