busca

Luz Vermelha

Elza Soares

Tom: A
[Intro]  C#m

Guitarra 1 (Telhado agora é porão...)
E|--------------------------------|
B|--------------------------------|
G|--------------------------------|
D|-----------6-6-4-------8-----8---|
A|---4-4---4--------7-7---7-7-----|
E|--------------------------------|

Guitarra 1 (Bem que o palhaço falou...)
E|--------------------------------|
B|--------------------------------|
G|--------------------------------|
D|-----------7-7-6-----11-----11--|
A|---5-5---5--------9-9----9-9----|
E|--------------------------------|

C#m
Telhado agora é porão
Tira de cima de mim
Esse pedaço de pedra
Me dá um abraço que o chão
Se abriu debaixo de nós
E até o coxo tropeça
D
Bem que o palhaço falou
Que o laço vai se fechar
E o laço sempre se fecha
Bem que o anão me contou
Que o mundo vai terminar
Num poço cheio de merda

C#m
Quem tinha tudo na mão
Quem não prestou atenção
Quem tem tamanco não sobra
Quem tem cabeça, pulmão,
Bexiga, rim, coração
Já vai pulando na cova
D
Quem é doente do pé?
O pai de todos quem é?
Cadê o rei da cocada?
Tá na quebrada quebrou
E o mundo todo afundou
No dia da pá virada

C#m
Do meio-dia no meio do tiroteio
D
Me deu receio do feio que veio lá
C#m
De ficar velho no meio do mundo inteiro
D
Me deu receio da bomba que vou soltar

F#m
Quem tem cadarço não sobra

Quem tem um pão pra comer
F#m
Quem tem cadarço não sobra
     B         
Meu amor, meu amor

C#m
Olha não tem ninguém na rua
Não vi ninguém no açougue
                   B         
Não tem ninguém lá pra abandonar
C#m
Olha não tem ninguém na praça
Só tem um sol sem graça
                    B        
Não tem ninguém pra ver e contar

Clipes